Lock, Step and Gone

Rancid

Composição de: Lars Frederiksen / Matt Freeman / Tim Armstrong
Titulo musica: Lock, Step and Gone
Escrita por: Rancid
Baixista: Matt Freeman
Tablatura por: Alex Sousa

Intro (sem  baixo)

	  Verse

G-----||----------|----------|
D-----||-----4444-|-4444-----|
A--23-||-4444-----|-----4444-|
E-4---||----------|----------|	x4

Chorus
				
G----------|----------|----------|-4--------|----------|----------|----------|----------|
D----------|----------|---2-2464-|--6242--2-|----------|----------|----------|----------|
A-44-------|-------23-|-44-4-----|------42--|-44-------|-------2--|-44-------|----------|
E----400-0-|-4442-4---|----------|----------|----400-0-|-4442-4-4-|----422-2-|-44-422-4-|

-Verse x4
-Chorus x1
-Verse x4 (sem  baixo)

	  Interlude

G-----||----------|----------|----------|-464-------|----------|----------|----------|----4-----|
D-----||-----2----|----------|---2-2456-|----6542-2-|----------|----------|-----4345-|-6-6-642--|
A--2--||-44-----2-|-------23-|-44-4-----|--------4--|-44-------|-------23-|-4-44-----|--------4-|
E-4-4-||----0-24--|-4442-4---|----------|-----------|----400-0-|-4442-4---|----------|----------|	x1

Bridge

G----------|----------|
D----------|----------|
A-----6764-|-2--------|
E-0-00-----|--2-4-444-|	x3

Bridge End

G----------|----------|
D----------|----------|
A-0-000000-|-22222222-|
E----------|----------|	x1

-Chorus x1
-Verse x8
Página 1 / 1

Letras e título
Acordes e artista

resetar configurações
OK