Cifra Club

Aprenda

Out of Control

Rancid

Cifra: Principal (violão e guitarra)
tom: F
Intro:
Solo de baixo 4X ae entra guitarra

RIFF 1
E|------------------------
B|------------------------
G|--5-5------------6-6-6--
D|--5-5--3-3--6-6--6-6-6--
A|--3-3--3-3--6-6--4-4-4--
E|-------1-1--4-4---------
  |------4X abafado------|

RIFF 2
E|------------------------
B|------------------------
G|--5-5------------6-6-6--
D|--5-5--3-3--6-6--6-6-6--
A|--3-3--3-3--6-6--4-4-4--
E|-------1-1--4-4---------
  |----------4X----------|

Verso:
RIFF 1
E|------------------------
B|------------------------
G|--5-5------------6-6-6--
D|--5-5--3-3--6-6--6-6-6--
A|--3-3--3-3--6-6--4-4-4--
E|-------1-1--4-4---------
  |------4X abafado------|

E|-------------------
B|-------------------
G|-------------------
D|--5-5--4-4---------
A|--3-3--2-2--5-5~~--
E|------------3-3~~--

RIFF 1
E|------------------------
B|------------------------
G|--5-5------------6-6-6--
D|--5-5--3-3--6-6--6-6-6--
A|--3-3--3-3--6-6--4-4-4--
E|-------1-1--4-4---------
  |------4X abafado------|

E|-------------------------------
B|-------------------------------
G|-----------------5-5-5-5-5-5-5-
D|--6-6-6-6-6-6-6--5-5-5-5-5-5-5-
A|--6-6-6-6-6-6-6--3-3-3-3-3-3-3-
E|--4-4-4-4-4-4-4----------------
  |-------------3X--------------|

Break e logo em seguida

E|-----
B|-----
G|-----
D|--6--
A|--6--
E|--4--

RIFF 2
E|------------------------
B|------------------------
G|--5-5------------6-6-6--
D|--5-5--3-3--6-6--6-6-6--
A|--3-3--3-3--6-6--4-4-4--
E|-------1-1--4-4---------
  |----------4X----------|

RIFF final
E|----------------------------
B|----------------------------
G|--5-5------------6-6-6--5~--
D|--5-5--3-3--6-6--6-6-6--5~--
A|--3-3--3-3--6-6--4-4-4--3~--
E|-------1-1--4-4-------------
  |------4X abafado------|

isso ae raça, com isso vcs tocam ela na boa, mt facil eh massa de 
toca =) (Guitarrista da banda Papai Queria Que eu Fosse Médico)
Composição de Lars Frederiksen / Tim Armstrong
Colaboração e revisão:
  • Alexandre Matos
6.967 exibições
    • ½ Tom
    • A
    • Bb
    • B
    • C
    • Db
    • D
    • Eb
    • E
    • F
    • F#
    • G
    • Ab
  • Adicionar à lista

    0 comentários

    Ver todos os comentários

    Conseguiu tocar?

    1 Tocaram 0 Ainda não

    Grave um vídeo tocando Out of Control e nos envie!

    00:00 / 00:00
    outros vídeos desta música
    repetir qualidade Automático
    Outros vídeos desta música
    00:00 / 00:00
    Automático

    Cifra Club Pro

    Aproveite o Cifra Club com benefícios exclusivos e sem anúncios
    Cifra Club Pro
    Aproveite o Cifra Club com benefícios exclusivos e sem anúncios
    OK