The 11th hour

Rancid

Composição de: Eric Dinn / Lars Frederiksen / Matt Freeman / Tim Armstrong
tom: F
Verse: (Repeat 1st sec 4x, then play 2nd, repeat 1st 2 more, then 2nd again)
G:-----------------------------*----------------------
D:----------------------5-5-5-5*----------------------
A:3-3------------3-3--3--------*----0--1-0------1--0--
E:-----1-1-3-5-3---------------*-1---------1-3-------3




Chorus: (Repeat 1st section 2x, then 2nd part)
G:------------------------------*-------------------------
D:------------------------------*-------------------------
A:------0-1-0-1-2-3-3-3-1--0----*-------------------------
E:1--1-----------------------3--*5---------3--3-3-5-3-5-3-
Instrumental:
G:------------------------------------------------
D:------333---222---------------------------------
A:3----------------------------3-5--3-3-3-------2-
E:------------------1--1-1-5-5------------5-3-5---
Instrumental continued:
G:-----------------------------------------
D:------333---222---3-3-3-3-1-1-1-1--------
A:3---------------------------------3-----1
E:------------------------------------1-3--
Página 1 / 1

Letras e título
Acordes e artista

resetar configurações
OK