Cifra Club

Aprenda

Viverei Proezas

Raquel Mello

Cifra: Principal (violão e guitarra)
tom: D
Intro: D/F#  D9/E  D/F#  G  D/F#  D9/E  D/F#  G/D

Bm7                   A
Tenho que me preparar pra tomar posse do que é meu,
G          Em7             A/C# G/D
Amadurecer o meu coraçãoPra deus
Bm7                   A
Tudo que eu planejar, corro o risco de errar
G                    A         G/B
Mas, se o meu querer for a tua Resposta,
A/C#       G/D           A/E
Viverei proezas, coisas maiores do que eu

Refrão:
          D              A
Olhos não viram, ouvidos não puderam ouvir
Em7
O que deus preparou pra mim
G9
O que deus preparou pra mim
          D              A
Olhos não viram, ouvidos não puderam ouvir
Em7
O que deus preparou pra mim
G9
O que deus preparou pra mim

( D  D4  D  G )

( D/F#  D9/E  D/F#  G )


 D        A             Em7           G
Entrego o meu caminho, a ele o confiarei
 D      A/C#            Em7           G
Entrego o meu caminho, a ele o confiarei

Solo: D  A  Em7  G  G  F#  E  D  Em7  F#m  G  D  A
                   (D)                        (A)
E|----------------------------------------------------|
B|---------------10-----------------------------------|
G|-----------7-9----11-----7---9-7-6------------------|
D|-------7-9-------------7---7-------7----------------|
A|-5-0-7-------------------------------7-5-4---7------|
E|-------------------------------------------5--------|
  Em7                        G
E|--------------------------------------------------|
B|--------------------------------------------------|
G|-9-9-9-9-9-7-9/11-9-7-7----9-9-9-9-9-7-9/11-9-7-7-|
D|--------------------------------------------------|
A|--------------------------------------------------|
E|--------------------------------------------------|

E|-----------------12----10---------------------------------|
B|--------------12----10----8-7H8P7-------------------------|
G|---12-11-9------------------------9-----------------------|
D|-----------12-----------------------9.....-11.....-12.....|
A|----------------------------------------------------------|
E|----------------------------------------------------------|
  (D)   (A)
E|-17--14----10-9H10P9--------------|
B|---------------------10------10---|
G|------------------------11-9----11|
D|----------------------------------|
A|----------------------------------|
E|----------------------------------|
Composição de Anderson Freire
Colaboração e revisão:
  • Wallace Davidson
2.302 exibições
    • ½ Tom
    • A
    • Bb
    • B
    • C
    • Db
    • D
    • Eb
    • E
    • F
    • F#
    • G
    • Ab
  • Adicionar à lista

    0 comentários

    Ver todos os comentários
    00:00 / 00:00
    outros vídeos desta música
    repetir qualidade Automático
    Outros vídeos desta música
    00:00 / 00:00
    Automático

    Cifra Club Pro

    Aproveite o Cifra Club com benefícios exclusivos e sem anúncios
    Cifra Club Pro
    Aproveite o Cifra Club com benefícios exclusivos e sem anúncios
    OK