Cifra Club

Aprenda

Agord La Bruja

Rata Blanca

Cifra: Principal (violão e guitarra)
tom: F#
INTRO: 

Riff A:                                                             X3 
|-----------------------------------------------------------------------| 
|-----------------------------------------------------------------------| 
|-----------------------------------------------------------------------| 
|---------7-7---------7-----7-7/9---------7-7---------------------------| 
|---------5-5---------5-----5-5/7---------5-5-------------------------7-| 
|-0-0-0-0-----0-0-0-0---0-0-------0-0-0-0-----O-O-3-3-5-5-6-6-5-5-3-3-5-| 

Riff B: 
|-----------------------------|-----------------------------| 
|-----------------------------|-----------------------------| 
|-----------------------------|-----------------------------| 
|---------7-7---------7-----7-|-----------------------------| 
|---------5-5---------5-----5-|-----------------5-----------| 
|-0-0-0-0-----0-0-0-0---0-0---|-5-7-8-7-5-3-2-0---8-7-53-2-| 

Riff C: 
|-----------------------------------------------------| 
|-----------------------------------------------------| 
|-----------------------------------------------------| 
|-9---------7---------7-7-----7/9---------------------| 
|-7---------5---------5-5-----5/7-----------------8-7-| 
|-0-0-0-0-0---0-0-0-0-----0-0-----0-0-0-0-0-0-0-0-6-5-| 

|-------------------------------------------------------------| 
|-------------------------------------------------------------| 
|-------------------------------------------------------------| 
|-9---------7---------7-7-----7/9-----------------------------| 
|-7---------5---------5-5-----5/7-----------------8-7-5-8-7-5-| 
|-0-0-0-0-0---0-0-0-0-----0-0-----0-0-0-0-0-0-0-0-6-5-3-6-5-3-| 

|---------------------------------|-------|-----------------------| 
|---------------------------------|-------|-----------------------| 
|---------------------------------|-7-----|-----------------------| 
|-9---------7---------7-7-----7/9-|-5-7-9-|-----------------------| 
|-7---------5---------5-5-----5/7-|---5-7-|-----------------------| 
|-0-0-0-0-0---0-0-0-0-----0-0-----|-------|-0-0-3-3-5-5-6-6-5-5-3-| 

Riff D: 
|---1-----------------------------| 
|---1-----------------------------| 
|-----5-------5---5p4-9-8-7-----5-| 
|-3---5-5-5-5---5-----9-8-7-----5-| 
|-3---3-5-------------7-6-5-0-2-3-| 
|-1-----3-------------------------| 

 REPITE 'Riff A' x2 'Riff C' Y 'Riff D' 

Riff E: 
|-------------------------------------------------------------| 
|-------------------------------------------------------------| x4 
|-------------------------------------------------------------| 
|-------------------------------------------------------------| 
|-----------------8-7-5-8-7-5---------------------------------| 
|-0-0-0-0-0-0-0-0-6-5-3-6-5-3-0-0-0-0-0-0-0-0-0-0-0-0-0-0-0-0-| 

BASE DEL SOLO: 
F#5 
F#5 G#5 A5 B5 D5 E5AguC F#5 Agudo 

'Riff A' Y 'Riff F' 

Riff F: 
|-------------------------------------------------------------------------| 
|-------------------------------------------------------------------------| 
|-------------------------------------------------------------------------| 
|---------7-7---------7-----7-7/9---------7-7-----------------------------| 
|---------5-5---------5-----5-5/7---------5-5-------------------------7-5-| 
|-0-0-0-0-----0-0-0-0---0-0-------0-0-0-0-----0-0-3-3-5-5-6-6-5-5-3-3-5-3-| 


REPITE 'Riff C' 


Final: 
|---------------------------| 
|---------------------------| x12 
|---------------------------| 
|-7/9-----------------7-----| 
|-5/7-----------------5-----| 
|-----0-0-0-0-0-0-0-0---0-0-|
Composição de Giardino
Colaboração e revisão:
  • Eduardo Lopes
1.131 exibições
    • ½ Tom
    • A
    • Bb
    • B
    • C
    • Db
    • D
    • Eb
    • E
    • F
    • F#
    • G
    • Ab
  • Adicionar à lista

    0 comentários

    Ver todos os comentários

    Conseguiu tocar?

    0 Tocaram 0 Ainda não

    Grave um vídeo tocando Agord La Bruja e nos envie!

    00:00 / 00:00
    Outros vídeos desta música
    Repetir Qualidade Automático
    Outros vídeos desta música
    00:00 / 00:00
    Automático

    Cifra Club Pro

    Aproveite o Cifra Club com benefícios exclusivos e sem anúncios
    Cifra Club Pro
    Aproveite o Cifra Club com benefícios exclusivos e sem anúncios
    OK