Cifra Club

Aprenda

Angeles de Acero

Rata Blanca

Cifra: Principal (violão e guitarra)
tom: C
 Intro: 
                                               G F                                           G
e|---------------------------------------------3-1--------------------------------------------3- 
B|---------------------------------------------3-1--------------------------------------------3- 
G|---------------------------------------------0-2--------------------------------------------0- 
D|---------------------------------------------0-3--------------------------------------------0- 
A|---------3-------------3-6-5-3---------6-5-3-2-3----------3-------------3-6-5-3---------3-5-2- 
E|-5-0-3-5---5-3-0-3-4-5---------5-0-3-5-------3-1--5-0-3-5---5-3-0-3-4-5---------5-0-3-5-----3- 

  Am              F/A      D/A
    Nunca pensaste   que sucede 
  F     C      G    F
    con una ilusion. 
  Am              F/A     D/A
    No te detengas   dale forma 
  F C         G
    dentro de vos 

  Dm               C
    Si no vives tu vida quizas 
 Dm  F       Am
    muera tu ser 
  G      C/G      G
    Solo vos lograras 
            C/G  Em
    que tu sueño sea real 
F Em F   G
     con tu verdad.. 

Repite Intro 

Todos los truinfos fueron sueños 
Dales color. 
La fantasia siempre tuvo 
quien la soño. 

Todo vas a alcanzar 
trata de ser. 
Solo vos lograras 
que tu sueño sea real 
con tu verdad 

Intro x2 

Solo E5 E5 x7 Em F D/F# G Am C G Am F C Gx2 

Y tus ansias piden lugar 
quieren crecer 
Solo vos lograras 
que tu sueño sea real 
Con tu verdad. 

Intro x2 

Termina con este Riff 

e|-------------------| 
B|-------------------| 
G|--7/8-7-5-7-5------| 
D|--7/8-7-5-7-5------| 
A|--------------5-7--| 
E|--------------3-5--|
Composição de Walter Giardino
Colaboração e revisão:
  • Guilherme Lucini
898 exibições
    • ½ Tom
    • A
    • Bb
    • B
    • C
    • Db
    • D
    • Eb
    • E
    • F
    • F#
    • G
    • Ab
  • Adicionar à lista

    0 comentários

    Ver todos os comentários

    Conseguiu tocar?

    0 Tocaram 0 Ainda não

    Grave um vídeo tocando Angeles de Acero e nos envie!

    00:00 / 00:00
    Outros vídeos desta música
    Repetir Qualidade Automático
    Outros vídeos desta música
    00:00 / 00:00
    Automático

    Cifra Club Pro

    Aproveite o Cifra Club com benefícios exclusivos e sem anúncios
    Cifra Club Pro
    Aproveite o Cifra Club com benefícios exclusivos e sem anúncios
    OK