Cifra Club

Aprenda

El Camino Del Sol

Rata Blanca

Cifra: Principal (violão e guitarra)
tom: C
Intro
                                                                     E(agudo)
E|------------------------------------------------------------------|---|
B|------------------------------------------------------------------|---|
G|-----------------------------------------------------------------*|--9| X2
D|-----------------------------------------------------------------*|--9|
A|-7--8--7--11--12--11--14--12--11--12--11--8--11--8--7--8--7--5--7-|--7|
E|------------------------------------------------------------------|---|



F    E                                                    F 
 Un rayo cayó, marcando el lugar en donde debía encontrar
  E
Aquel talismán que puede enseñar, la ciencia del bien y del mal...
         Dm              Am      C                                        G
Y así lograr, con sus secretos poder descubrir el sitio al que llegan los sabios,
G   A  GF G   F   E 
Por el camino del sol...

Intro

F     E                                                     F 
Un trueno sonó y pude volar, por tierras, montañas y el mar.
   E
La vida sentí Oh! dentro de mí, y al viento pude acariciar...
       Dm               Am          C                                   G
Y descendí, sobre del desierto, y un ser superior me dijo del templo sagrado,
G   A  GF G   F   E
Por el camino del sol...


E|-------------------------------------------------------------------|----------|
B|-------------------------------------------------------------------|----------|
G|------------------------------------------------------------------*|----------|
D|------------------------------------------------------------------*|----------|
A|-7--8--7--11--12--11--14--12--11--12--11--8--11--8--7--8--7--5--7--|-5--3--2--|
E|-------------------------------------------------------------------|----------|



Am   F    C                  G
Oh!, Oh!, Por el camino del sol
Am   F    C                   E
Oh!, Oh!, Puedo ser parte de Dios
Am   F    C                  G
Oh!, Oh!, Quiero beber su calor
Am   F    C                    E 
Oh!, Oh!, Quiero Ilevártelo a vos...

Solo

Intro

F     E                                                         F D
Y al templo llegue, su luz me cegó, estaba en presencia del rey.
  E
Y pude contar que en ese ritual, logré conocer la verdad.
       Dm            Am       C                                   G
Y desperté, en el desierto, tenía ante mí, aquel talismán que enseñaba
G    A     GF  G  F   E   
como ir al templo del sol...

Final

Muy pronto agregaré el solo que ya casi lo tengo.
Composição de Walter Giardino
Colaboração e revisão:
  • Yuri Rocha
1.740 exibições
    • ½ Tom
    • A
    • Bb
    • B
    • C
    • Db
    • D
    • Eb
    • E
    • F
    • F#
    • G
    • Ab
  • Adicionar à lista

    0 comentários

    Ver todos os comentários

    Conseguiu tocar?

    0 Tocaram 0 Ainda não

    Grave um vídeo tocando El Camino Del Sol e nos envie!

    00:00 / 00:00
    Outros vídeos desta música
    Repetir Qualidade Automático
    Outros vídeos desta música
    00:00 / 00:00
    Automático

    Cifra Club Pro

    Aproveite o Cifra Club com benefícios exclusivos e sem anúncios
    Cifra Club Pro
    Aproveite o Cifra Club com benefícios exclusivos e sem anúncios
    OK