Cifra Club

Aprenda

El Ultimo Ataque

Rata Blanca

Cifra: Principal (violão e guitarra)
tom: A
Afinacion standard EADGBE

 Intro
E|-----------------------------------------------------------------|
B|-----------------------------------------------------------------|
G|-2----0---------------------------------0----2--/-4------------2-|
D|-0---------4---2----0----2--/-4----0----2--------------5---2-----|
A|--------------------2--------------------------------------0-----|
E|-----------------------------------------------------------------|

 Riff

G|--------------------------------------------------------------7~~|
D|----------4-x-x-4-x-x-2-x-x-2--0--2--4-x-x-4-x-x-2-x-x-2------7~~|
A|----------4-x-x-4-x-x-2-x-x-2--0--2--4-x-x-4-x-x-2-x-x-2---------|
E|-0-1-2-3---------------------------------------------------------|

G|----------------------------------------------------|
D|-4-x-x-4-x-x-2-x-x-2--0--2--4-x-x-4-x-x-2-x-x-2-----|
A|-4-x-x-4-x-x-2-x-x-2--0--2--4-x-x-4-x-x-2-x-x-2-----|
E|----------------------------------------------------|

G|--------------------------------------------------------------7~~|
D|----------4-x-x-4-x-x-2-x-x-2--0--2--4-x-x-4-x-x-2-x-x-2------7~~|
A|----------4-x-x-4-x-x-2-x-x-2--0--2--4-x-x-4-x-x-2-x-x-2---------|
E|-0-1-2-3---------------------------------------------------------|

G|-------------------------------------------------0---2-|
D|-4-x-x-4-x-x-2-x-x-2--0--2--4-x-x-4-x-x-4-x-x-4--0---2-|
A|-4-x-x-4-x-x-2-x-x-2--0--2--4-x-x-4-x-x-4-x-x-4--------|
E|-------------------------------------------------------|


 Estrofa

B|---------------------------------------------------------------------|
G|-4~~-----------------7~~---------------------------------------------|
D|-4~~-----------------7~~---------------------------------------------|
A|---------------------------------------------------------------------|

     Mi fe podra defenderme del ultimo ataque
     Y doblegar a enemigos que buscan vencer

G|-------------------------------------------------------------------|
D|-2-----------------------------------------------2-----------4-----|
A|-0-------------5-4-2-4-------------5-4-2-5-------0-----------2-----|
E|---------------------2-------------------3-------------------------|

     Mi decision        de ser real,        mis deseos de triunfar

 
 Repite intro

 (sobre la misma base de la estrofa anterior)

 Ya mi mision esta escrita en los Libros Sagrados,
 voy a lograr esa magia divina que se,
 me ayudara a concretar lo que mi rey me encomendo.

===============================================================================================
NOTA: Todos los acordes mencionados de aqui en adelante se refieren al formato power chord
===============================================================================================

G F# E           B    E                 B
      Y estoy seguro ningun conjuro podra
     D       A           B
      alimentarse de mi sangre.
G F# E           B    E                   B      
      Hoy las invoco fuerzas divinas del bien
A   G              A                     F#
      voy a luchar, voy a vencer por su poder

A|---------------------|
E|-2-3-2-0-2-3-2-0-----|
     
 SOLO

E|---------------------------------------------|
B|---------5---5-7-5---5-----------------------| Repite 1 vez
G|---4-6-7---7-------7---7-6-7-6-4-3---3-4~~---|
D|-4---------------------------------6---------|
A|---------------------------------------------|
E|---------------------------------------------|

E|-----------------------------------------------------------------------------|
B|-7-8/10~-8-7-----------------------------------------------7-----------------| Repite desde
G|----------------9~--7-9/11~-9-7-6~-----7-6---6-7-9---6-7-9----7-6-----6-7-6~-| el 
D|-------------------------------------------9----------------------9-9--------| principio
A|-----------------------------------------------------------------------------|
E|-----------------------------------------------------------------------------|

 ESTA PARTE ES MUY RAPIDA

E|-------------------------------------------12-14-15-14-12-14-15-14-12-14-15-14-12-14-15-14--|
B|-15-14-12-14-15-14-12-14-15-14-12-14-15-14--------------------------------------------------|
G|--------------------------------------------------------------------------------------------|
D|--------------------------------------------------------------------------------------------|
A|--------------------------------------------------------------------------------------------|
E|--------------------------------------------------------------------------------------------|

E|-------------------------------------------------10-12-13-12-10-12-13-12-10-12-14-12-10-12-14-12-|
B|-10-12-14-12-10-12-14-12-10-12-14-12-10-12-14-12-------------------------------------------------|
G|-------------------------------------------------------------------------------------------------|
D|-------------------------------------------------------------------------------------------------|
A|-------------------------------------------------------------------------------------------------|
E|-------------------------------------------------------------------------------------------------|
  
E|-----------------------------------------------------|
B|-8-10-12-10-8-10-12-10-8-10-12-10-8-10-12-10-8-7-----|
G|-------------------------------------------------6~~-|
D|-----------------------------------------------------|
A|-----------------------------------------------------|
E|-----------------------------------------------------|

=================================================================================================
El solo no esta completo porque de aqui en adelante esta repleto de harmonicos y estiradas
practicamente imposibles de transcribir correctamente, pero esta es la parte mas importante,
espero que les alcance.
================================================================================================= 

 Estrofa

    Y llegara el gran dia que el mal en el mundo
    sucumbira a la luz de un poder celestial,
    se moriran, se pudriran, solo cenizas

G|--------------------------------------------------------------|
D|---------5-5-5-5---------4-4-4-4--------------------------4---|
A|-----------------4-4-4-4---------2-2-2-2--5-5-5-5-4-4-4-4-2---| Final
E|--------------------------------------------------------------|
 
    quedaraaa....n

===============================================================================================
Espero la hayan disfrutado tanto o mas que yo.
Composição de Roberto Conso
Colaboração e revisão:
  • Yuri Rocha
1.445 exibições
    • ½ Tom
    • A
    • Bb
    • B
    • C
    • Db
    • D
    • Eb
    • E
    • F
    • F#
    • G
    • Ab
  • Adicionar à lista

    0 comentários

    Ver todos os comentários

    Conseguiu tocar?

    0 Tocaram 0 Ainda não

    Grave um vídeo tocando El Ultimo Ataque e nos envie!

    00:00 / 00:00
    Outros vídeos desta música
    Repetir Qualidade Automático
    Outros vídeos desta música
    00:00 / 00:00
    Automático

    Cifra Club Pro

    Aproveite o Cifra Club com benefícios exclusivos e sem anúncios
    Cifra Club Pro
    Aproveite o Cifra Club com benefícios exclusivos e sem anúncios
    OK