Cifra Club

Aprenda

En Nombre de Dios

Rata Blanca

Cifra: Principal (violão e guitarra)
tom: D
AFINACIÓN:  A= 430 hz 
 
 INTRO 
  Riff 1 
E|----------------------------------------------------------------------------------| 
B|----------------------------------------------------------------------------------| 
G|----------------------------------------------------------------------------------| 
D|----------------------------------------------------------------------------------| 
A|----------------------------------------------------------------------------------| 
E|-17\--12-0-0-13-0-0-12-0-0-10-0-0-12-0-13-0-12-0-0-10-0-0-12-0-0-13-0-0-12-0-10-0-| 
 
E|----------------------------------------|-----------------------------| 
B|----------------------------------------|-----------------------------| 
G|----------------------------------------|-----------------------------| 
D|----------------------------------------|-------------------8---------| 
A|----------------------------------------|-------------------8---------| 
E|--12-0-0-13-0-0-12-0-0-10-0-0-12-0-13-0-|--12-0-0-10-0-12-0-6---------| 
 
E|------------------------------------------------------------------------------| 
B|------------------------------------------------------------------------------| 
G|------------------------------------------------------------------------------| 
D|------------------------------------------------------------------------------| 
A|------------------------------------------------------------------------------| 
E|--12-0-0-13-0-0-12-0-0-10-0-0-12-0-13-0-12-0-0-10-0-0-12-0-0-13-0-0-12-0-10-0-| 
 
E|--------------------------------------------------------------------------| 
B|--------------------------------------------------------------------------| 
G|--------------------------------------------------------------------------| 
D|--------------------------------------------------------------------------| 
A|--------------------------------------------------------------------------| 
E|--12-0-0-13-0-0-12-0-0-10-0-0-12-0-13-0-12-0-0-10-0-0-8-0-7-0-0-8-0-0-7-0-| 
 
  Riff 2 
E|--------------------------------------------------------------------| 
B|--------------------------------------------------------------------| 
G|--------------------------------------------------------------------| 
D|--------------------------------------------------------------------| 
A|--0-0-0-2-0-3-0-5-0-0-2-0-0-3-0-0-5-0-7-0-8-0-0-5-0-0-7-0-0-12-0-10-| 
E|--------------------------------------------------------------------| 
 
E|------------------------------------| 
B|------------------------------------| 
G|------------------------------------| 
D|------------------------------------| 
A|--0-8-0-0-7-0-0-5-0-0-3-0-2-0---2---| 
E|------------------------------3-----| 
 
E|--------------------------------------------------------------------| 
B|--------------------------------------------------------------------| 
G|--------------------------------------------------------------------| 
D|--------------------------------------------------------------------| 
A|--0-0-0-2-0-3-0-5-0-0-2-0-0-3-0-0-5-0-7-0-8-0-0-5-0-0-7-0-0-12-0-10-| 
E|--------------------------------------------------------------------| 
 
E|-------------------------------------------------------------------------------| 
B|-------------------------------------------------------------------------------| 
G|-------------------------------------------------------------------------------| 
D|-------------------------------------------------------------------------------| 
A|--0-8-0-0-7-0-0-5----5-5-5-5---5-5-5-5---5-5-5-5-2-2-2-2---2-2-2-2---2-2-2-2---| 
E|---------------------3-3-3-3---3-3-3-3---3-3-3-3-0-0-0-0---0-0-0-0---0-0-0-0---| 
 
 
 A     B  C   D   G    A 
 El hijo del Sol regreso  
 F         E 
 en la tormenta 
 
E|----------------| 
B|----------------| 
G|----------------| 
D|----------------| 
A|--5-0-0-3-0-0-2-| 
E|----------------| 
 
 A      B  C  D   G      C 
 su alado corcel descendio 
 F          E 
 cerca del mar 
 
E|----------------| 
B|----------------| 
G|----------------| 
D|----------------| 
A|----------------| 
E|--4-0-0-5-0-0-7-| 
 
 D               Bb           D 
 Si escuchas el trueno entenderas 
        C        A      Bb 
 el mensaje, en su temblor 
 Bb  A  G    Ab     (Riff 3) 
 nadie le puede escapar... 
 
  Riff 3 
E|-----------------------------------------------| 
B|-----------------------------------------------| 
G|-----------------------------------------------| 
D|-----------------------------------------------| 
A|-4-0-5-0-7-0-4-0-5-0-7-0-8-0-7-0-5-0-4-0-5-0-4-| 
E|-----------------------------------------------| 
 
  Bm      G              D             A 
  Y estridente           ya viene a golpear 
  Bm      G              D             E 
  las miserias           de la humanidad 
  Bm      G              D             A 
  es la llama            que va a enloquecer 
  Bm      G              D             E 
  a los hombres          que ya son, 
 
 son hijos del Mal. 
 
 INTRO (Riff 2) 
 
 Que es la vida si no hay piedad 
 entre los hombres? 
 De que sirve un Dios sin amor 
 por religion? 
 
 Los Libros Sagrados no podran 
 enseniarnos la verdad 
 si el vacio esta en el alma... 
 
 Y estridente ya viene a golpear 
 las miserias de la humanidad 
 es la llama que va a enloquecer 
 a los hombres que ya son, 
 son hijos del Mal. 
 
 
 SOLO 
 
E|---12-8---------8-12-8-|13-10----------10-13-10-|12-8---------8-12-8-|13-10\7^10^7---10-7------| 
B|--------10---10--------|------10----10----------|-----10---10--------|------12-----9------9----| 
G|*----------9-----------|---------10-------------|--------9-----------|----------------------10-| 
D|*----------------------|------------------------|--------------------|-------------------------| 
A|-----------------------|------------------------|--------------------|-------------------------| 
E|-----------------------|------------------------|--------------------|-------------------------| 
 
E|--12-8---------8-12-8-|13-10----------10-13-10-|13-10----------10-13-10-|16-12-------------| 
B|-------10---10--------|------10----10----------|------11----11----------|------12----------| 
G|----------9-----------|---------10-------------|---------10-------------|---------14-13---*| 
D|----------------------|------------------------|------------------------|-----------------*| 
A|----------------------|------------------------|------------------------|------------------| 
B|----------------------|------------------------|------------------------|------------------| 
 
 REPITE 1 VEZ 
 
E|20-17----------17-20-17-|-19-15----------15-19-15-|-19-15----------15-19-15-|17-13----------13-17-13-| 
B|------18----19----------|-------15----15----------|-------17----17----------|------13----13----------| 
G|---------19-------------|----------16-------------|----------17-------------|---------14-------------| 
D|------------------------|-------------------------|-------------------------|------------------------| 
A|------------------------|-------------------------|-------------------------|------------------------| 
B|------------------------|-------------------------|-------------------------|------------------------| 
 
E|--17-13----------13-17-13-|16-12----------12-16-12-|17-12----------12-17-12-|20-19-17-16-17----| 
B|--------15----15----------|------12----12----------|------13----13----------|------------------| 
G|-----------15-------------|---------13-------------|---------14-------------|------------------| 
D|--------------------------|------------------------|------------------------|------------------| 
A|--------------------------|------------------------|------------------------|------------------| 
E|--------------------------|------------------------|------------------------|------------------| 
 
E|20-17----------17-20-17-|-19-15----------15-19-15-|-19-15----------15-19-15-|17-13----------13-17-13-| 
B|------18----19----------|-------15----15----------|-------17----17----------|------13----13----------| 
G|---------19-------------|----------16-------------|----------17-------------|---------14-------------| 
D|------------------------|-------------------------|-------------------------|------------------------| 
A|------------------------|-------------------------|-------------------------|------------------------| 
B|------------------------|-------------------------|-------------------------|------------------------| 
 
E|--17-13----------13-17-13-|-16-12-----------| 
B|--------15----15----------|-------12--------| 
G|-----------15-------------|----------14-----| 
D|--------------------------|-------------13~-| 
A|--------------------------|-----------------| 
E|--------------------------|-----------------| 
 
E|-17-20-19-17-16-19-17-16-|-17-20-19-17-17-20-19-17-b19(20)---------------| 
B|-------------------------|----------------------------------b15(17)r15~~-| 
G|-------------------------|-----------------------------------------------| 
D|----- {2 veces} ---------|-----------------------------------------------| 
A|-------------------------|-----------------------------------------------| 
E|-------------------------|-----------------------------------------------| 
 
E|----------10-12-13-12-10----------------10-------|----------10-12-13-12-10-10/12-13-15-12/13-15-17-13/15-| 
B|-10-12-13----------------13-12-10-12-13----13-12-|-10-12-13----------------------------------------------| 
G|-------------------------------------------------|-------------------------------------------------------| 
D|---------------- {2 veces} ----------------------|-------------------------------------------------------| 
A|-------------------------------------------------|-------------------------------------------------------| 
E|-------------------------------------------------|-------------------------------------------------------| 
 
E|-17-19-15-17-b19(20)~~-r19^17-b19(21)r19~~-|-16-17-19-16-17----16----------------------------------------| 
B|-------------------------------------------|----------------18----17-18-17-15-17~~-\11/17-18-14-17-15-14-| 
G|-------------------------------------------|-------------------------------------------------------------| 
D|-------------------------------------------|-------------------------------------------------------------| 
A|-------------------------------------------|-------------------------------------------------------------| 
E|-------------------------------------------|-------------------------------------------------------------| 
 
E|----------------------------------------------------12/17----------------------------------- 
B|-18-17-15-18-17-15-15-17-18-15-17-15-15-17-15\13-15-------20-18-17-20-18-17----------17-18-- 
G|----------------------------------------------------------------------------19-18-19-------- 
D|-------------------------------------------------------------------------------------------- 
A|-------------------------------------------------------------------------------------------- 
E|-------------------------------------------------------------------------------------------- 
 
E|---------------------------------------------|----------------------|-----------------------------16-b16(17) 
B|-17------------------------------------------|-------12-------------|--------15^18^15----------15----------- 
G|----19-17-19-17-16----------16---------------|-14-13----14-13-------|-----16----------16----16-------------- 
D|-------------------19-18-19----19-18-15-14~~-|----------------15-14-|-/18----------------18----------------- 
A|---------------------------------------------|----------------------|--------------------------------------- 
E|---------------------------------------------|----------------------|--------------------------------------- 
 
E|-15~~-|-13^15^13-12-12-13-15-13-12^13^12----12-|------------------------------12-13-15-13^15^13-13^12----| 
B|------|----------------------------------15----|-b15(17)r15--b15(17)r15-13-15-------------------------15-| 
G|------|----------------------------------------|---------------------------------------------------------| 
D|------|----------------------------------------|---------------------------------------------------------| 
A|------|----------------------------------------|---------------------------------------------------------| 
E|------|----------------------------------------|---------------------------------------------------------| 
 
E|-12-------12-15-----------------------------------------------|-13-15-17-15-13-12-13-15-13-12----12-13-12- 
B|----15-13-------13-12-13^12----12-------12----13-12-b13(15)~~-|-------------------------------15---------- 
G|----------------------------14----14-13----14-----------------|------------------------------------------- 
D|--------------------------------------------------------------|------------------------------------------- 
A|--------------------------------------------------------------|------------------------------------------- 
E|--------------------------------------------------------------|------------------------------------------- 
 
E|-------------12------------------------12/16--| 
B|-15^14^13-15----15-13-12-b13(15)-13-12--------| 
G|----------------------------------------------| 
D|----------------------------------------------| 
A|----------------------------------------------| 
E|----------------------------------------------| 
 
E|---12-8---------8-12-8-|13-10----------10-13-10-|12-8---------8-12-8-|13-10-------10-7-------| 
B|--------10---10--------|------10----10----------|-----10---10--------|------12---------9-----| 
G|-----------9-----------|---------10-------------|--------9-----------|---------13--------10--| 
D|-----------------------|------------------------|--------------------|-----------------------| 
A|-----------------------|------------------------|--------------------|-----------------------| 
E|-----------------------|------------------------|--------------------|-----------------------| 
 
E|--12-8---------8-12-8-|13-10----------10-13-10-|13-10----------10-13-10-|16-12------------| 
B|-------10---10--------|------10----10----------|------11----11----------|------12---------| 
G|----------9-----------|---------10-------------|---------10-------------|---------14-13---| 
D|----------------------|------------------------|------------------------|-----------------| 
A|----------------------|------------------------|------------------------|-----------------| 
B|----------------------|------------------------|------------------------|-----------------| 
  
E|---12-8---------8-12-8-|13-10----------10-13-10-|12-8---------8-12-8-|13-10-------10-7-------| 
B|--------10---10--------|------10----10----------|-----10---10--------|------12---------9-----| 
G|-----------9-----------|---------10-------------|--------9-----------|---------13--------10--| 
D|-----------------------|------------------------|--------------------|-----------------------| 
A|-----------------------|------------------------|--------------------|-----------------------| 
E|-----------------------|------------------------|--------------------|-----------------------| 
 
E|--12-8---------8-12-8-|13-10----------10-13-10-|13-10----------10-13-10-| 
B|-------10---10--------|------10----10----------|------11----11----------| 
G|----------9-----------|---------10-------------|---------10-------------| 
D|----------------------|------------------------|------------------------| 
A|----------------------|------------------------|------------------------| 
B|----------------------|------------------------|------------------------| 
 
E|-12-0-0-13-0-0-12-0-0-10-0-0-12-0-13-0-12-0-0-10-0-0-8-0-0-7-0-0-------------| 
B|-----------------------------------------------------------------------------| 
G|------------------------------------------------------------------b5(7)~~----| 
D|-----------------------------------------------------------------------------| 
A|-----------------------------------------------------------------------------| 
E|-----------------------------------------------------------------------------| 
 
 
 Si escuchas el trueno entenderas 
 el mensaje, en su temblor 
 nadie le puede escapar... 
 
 Y estridente ya viene a golpear 
 las miserias de la humanidad 
 es la llama que va a enloquecer 
 a los hombres que ya son, 
 son hijos del Mal. 
 
 (FINAL SOBRE RIFF 2 DE LA INTRO) 
 
 Hijos del mal...  
 Hijos del mal...  
 Hijos del mal...
Composição de Walter Giardino
Colaboração e revisão:
  • Yuri Rocha
1.438 exibições
    • ½ Tom
    • A
    • Bb
    • B
    • C
    • Db
    • D
    • Eb
    • E
    • F
    • F#
    • G
    • Ab
  • Adicionar à lista

    0 comentários

    Ver todos os comentários

    Conseguiu tocar?

    0 Tocaram 0 Ainda não

    Grave um vídeo tocando En Nombre de Dios e nos envie!

    00:00 / 00:00
    Outros vídeos desta música
    Repetir Qualidade Automático
    Outros vídeos desta música
    00:00 / 00:00
    Automático

    Cifra Club Pro

    Aproveite o Cifra Club com benefícios exclusivos e sem anúncios
    Cifra Club Pro
    Aproveite o Cifra Club com benefícios exclusivos e sem anúncios
    OK