Cifra Club

Aprenda

Hombre de Hielo

Rata Blanca

Cifra: Principal (violão e guitarra)
tom: E
Saludos, les hago llegar mi interpretacion del primer 
tema de 'Guerrero del Arco Iris'. Los detalles no abundan 
pero si trabajan bien estas bases los resultados pueden 
ser sorprendentes... 

Intro: 
------ 

e|------------------/---------------------/---------------------| 
B|------------------/---------------------/---------------------| 
G|------------------/---------------------/---------------------| 
D|------------------/---------------------/------------------4--| 
A|-7-7-7-7-7---5-4--/--2-2-7-5---5---5-7--/--2-2-7-5---------2--| 
E|-5-5-5-5-5-0-3-2--/--0-0-----7---7------/--0-0-----3-5-3-5----| 

e|---------------------/-------------------/--------------------| 
B|---------------------/-------------------/--------------------| 
G|---------------------/-------------------/--------------------| 
D|---------------------/-------------------/--------------------| 
A|--2-2-7-5---5---5-7--/--2-2-7-5----------/--------2-----------| 
E|--0-0-----7---7------/--0-0-----3-5-3-5--/--0-3-2-0-----------| 

Estrofas: 
--------- 

E5                        A5 
No ves no puedo más ahora debo salir de aquí 
      G5            A5       G5   E5       (E-G-F#-E) 
Disfruté de tu amor sólo por esta noche  
E5                        A5 
Estoy buscando acción no quería tu corazón 
      G5          A5       G5   E5         (B-A-G-A) 
Yo te di mi calor sólo por esta noche 

Estribillo: 
----------- 

A5 
No soy de esta ciudad  
G5         A5 
soy de un lugar 
      G5 E5 D5 G5  A5 
Donde todos buscan más 
      G5 E5 D5 G5  A5  (G5-A5) 
Pero nadie amó jamás  
               (E) -Repite Intro a partir de E- 
Por una noche 

---------------------------------------------------------- 
Aca va el resto de la letra, por respeto a los muchachos 
de Rata Blanca, los solos los dejamos para otro día... 
---------------------------------------------------------- 

Me voy debo seguir el camino me espera ya 
Es mejor para ti no puedo verte triste 
Allí encuentro acción 
Y en tu cuerpo está mi pasión 
Si te digo adiós es para despedirte 

Me voy de esta ciudad  
Vuelvo a mi hogar 
Donde todo es real  
Pero nadie sabe amar 
Como esta noche 

No se como pasó el destino me trajo aqui 
No te puedo llevar dejá de perseguirme 
Quizás te vuelva a ver sólo el tiempo te hará saber 
Cuánto puede durar todo lo que me diste... 

Me voy de esta ciudad  
Vuelvo a mi hogar 
Donde todo es real  
Pero nadie sabe amar 
Como esta noche 

------------------------------------------------------------ 

Espero que les sirva de algo esta tablatura, ya que decidi 
hacerla porque no encontre en ningun lado este tema, que 
realmente merece ser tocado. (Pedal American-Metal, bastante 
volumen y sobre todo mucho sentimiento) 

Cualquier duda o sugerencia escribidme a  
penumbra@interbourg.com.ar sera bien recibida. 

Saludos a la gente de Alma & Sangre, la mejor banda de 
Rock & Blues de Grand Bourg. 

Hey Hey My My... 
'Y recuerden que es mejor morir de pie que vivir de rodillas'
Composição de Adrian Barilari / Walter Giardino
Colaboração e revisão:
  • jeferson vieira
539 exibições
    • ½ Tom
    • A
    • Bb
    • B
    • C
    • Db
    • D
    • Eb
    • E
    • F
    • F#
    • G
    • Ab
  • Adicionar à lista

    0 comentários

    Ver todos os comentários

    Conseguiu tocar?

    0 Tocaram 0 Ainda não

    Grave um vídeo tocando Hombre de Hielo e nos envie!

    00:00 / 00:00
    Outros vídeos desta música
    Repetir Qualidade Automático
    Outros vídeos desta música
    00:00 / 00:00
    Automático

    Cifra Club Pro

    Aproveite o Cifra Club com benefícios exclusivos e sem anúncios
    Cifra Club Pro
    Aproveite o Cifra Club com benefícios exclusivos e sem anúncios
    OK