Cifra Club

Aprenda

La Leyenda Del Hada Y El Mago

Rata Blanca

Cifra: Versão 8 (violão e guitarra)
tom: Cm
E|-12h7-------------------------------------|-|
B|------8-------------------8-----7-8-7-----|-|
G|--------9---------------9---8-9-------8-9-| X|
D|----------9-----------9-------------------| 2|
A|------------10-7-9-10---------------------|-|
E|------------------------------------------|-|

   ,, . .. . .. ,, . .. . .. ,, . .. . .. ,, . .. . ..
E|-14-7-11-7-11-14-7-11-7-11-15-7-12-7-12-15-7-12-7-12-|
B|-----------------------------------------------------|
G|-----------------------------------------------------|
D|-----------------------------------------------------|
A|-----------------------------------------------------|
E|-----------------------------------------------------|

   ,, .. .. .. ,, .. .. .. .. ,, .. .. .. .. .. ;;
E|-17-10-14-10-14-17-10-14-10-14-19-10-15-10-15-19v-|
B|--------------------------------------------------|
G|--------------------------------------------------|
D|--------------------------------------------------|
A|--------------------------------------------------|
E|--------------------------------------------------|

   ,, ,, ,, ,, ,, ,, ,, ,, ,, ,, ,, ,, ,, ,, ,, ,, ,, ,, **
E|-20h17----17h14----19h15----15h12----15h12----14h11----12v-|
B|-------17-------15-------15-------12-------13-------12-----|
G|-----------------------------------------------------------|
D|-----------------------------------------------------------|
A|-----------------------------------------------------------|
E|-----------------------------------------------------------|

   ,, . .. . .. ,, . .. . .. ,, . .. . .. ,, . .. . ..
E|-14-7-11-7-11-14-7-11-7-11-15-7-12-7-12-15-7-12-7-12-|
B|-----------------------------------------------------|
G|-----------------------------------------------------|
D|-----------------------------------------------------|
A|-----------------------------------------------------|
E|-----------------------------------------------------|

   ,, .. .. .. ,, .. .. .. .. ,, .. .. .. .. .. ;;
E|-17-10-14-10-14-17-10-14-10-14-19-10-15-10-15-19v-|
B|--------------------------------------------------|
G|--------------------------------------------------|
D|--------------------------------------------------|
A|--------------------------------------------------|
E|--------------------------------------------------|

   ,, ,, ,, ,, ,, ,, ,, ,, ,, ,, ,, ,, ,, ,, ,, ,, ,, ,, **
E|-20h17----17h14----19h15----15h12----15h12----14h11----12v-|
B|-------17-------15-------15-------12-------13-------12-----|
G|-----------------------------------------------------------|
D|-----------------------------------------------------------|
A|-----------------------------------------------------------|
E|-----------------------------------------------------------|

   ;; ;; ;; ;;  .. .. **  ,, ,, ,, ,, ,, ,, ,, ,, ,, ,, ,, ,, ;;
E|-12-14-15-14b-14h12h14v-12-14-15-12-14-15-14-15-17-14-15-17-19b-|
B|----------------------------------------------------------------|
G|----------------------------------------------------------------|
D|----------------------------------------------------------------|
A|----------------------------------------------------------------|
E|----------------------------------------------------------------|

   .. .. **  ;;  ;; ;; ;; ;; ;; ;;  .. .. .. .. .. .. .. **
E|-19h17h19v-19b-19-17-----------------18h15----------15----|
B|---------------------20-19-17-19v-17-------17----17----17-|
G|----------------------------------------------18----------|
D|----------------------------------------------------------|
A|----------------------------------------------------------|
E|----------------------------------------------------------|

   ;; ** ;; **  **  **  .. .. .. .. .. .. .. .. .. .. .. .. .. ..
E|----------19b---------------14-16-14-13-------------------------|
B|----19-16-----17b-17b-14-15-------------14-15-14-12-------------|
G|----------------------------------------------------11-13-11-10-|
D|----------------------------------------------------------------|
A|----------------------------------------------------------------|
E|----------------------------------------------------------------|

   .. .. .. . .. .. .. . . . ; + ++ ++ ++ ++ + ++ ++ ++ ++ ++ .
E|-------------------------------------------9h14----------------|
B|----------------------------------------10------10-------------|
G|-------------------------------------11------------11----------|
D|-11-12-11-9-----------------------11------------------11-------|
A|------------11-12-11-9-------9h12------------------------12-9v-|
E|-----------------------9---------------------------------------|

   .. .. .. .. .. .. .. .. .. .. .. .. ;;  ,, ,, ,, ,, ,, ,,
E|-13-10----10-16-13----13-19h16----16-21b-21h17-------------|
B|-------12----------15----------18--------------19----------|
G|--------------------------------------------------18----18-|
D|-----------------------------------------------------19----|
A|-----------------------------------------------------------|
E|-----------------------------------------------------------|

   **  ;;  .. .. ** ,, ,, ,, ,, ,, ,, **  ;;  .. .. ;; ,, ,, ,, ;;
E|------------------19h16---------------------------------14-16-17-|
B|------------------------17---------------------------14----------|
G|-21v-21v-19-18-19----------16----16-19v-18v-18-16-18-------------|
D|------------------------------18---------------------------------|
A|-----------------------------------------------------------------|
E|-----------------------------------------------------------------|

   **  .. .. .. .. .. .. .. .. .. .. .. .. .. + .. ,,  ,, ,,
E|-19b-20-17----17-17-14----14-13-11----11-11-8----21b-21-21b| e-
B|-----------19----------16----------12---------10-------------|
G|-------------------------------------------------------------|
D|-------------------------------------------------------------|
A|-------------------------------------------------------------|
E|-------------------------------------------------------------|

   .. .. .. .. .. .. .. .. .. .. .. .. .. .. .. .. .. .. .. .. ..
E|-19-21-19-17----17-19-21-19-17----17-19-21-19-17-16-17-19-17-16----|
B|-------------19----------------19----------------------------------|
G|-------------------------------------------------------------------|
D|-------------------------------------------------------------------|
A|-------------------------------------------------------------------|
E|-------------------------------------------------------------------|

   .. .. .. .. .. .. .. .. .. .. .. .. .. .. .. .. .. .. ..
E|----------------------------13-14-16-14-13----------------|
B|-14-15-18-15-14-15-18-15-14----------------15-14-12-14-15-|
G|----------------------------------------------------------|
D|----------------------------------------------------------|
A|----------------------------------------------------------|
E|----------------------------------------------------------|

   .. .. .. .. .. .. .. .. .. .. .. .. .. .. .. .. .. .. .. ..
E|-13-14-16-17-16-14-13----------------------------------------|
B|-------------------------------------------------------------|
G|----------------------14-16-14-13-14-13-11-11-13-11-10-10-11-|
D|-------------------------------------------------------------|
A|-------------------------------------------------------------|
E|-------------------------------------------------------------|

   .. .. .. .. .. .. .. .. .. .. .. .. .. .. .. .. .. .. .. .. ..
E|-------------------------------10-------10-13----10-13-14-10-13-|
B|----10-------10-12----10-12-14----12-14-------14----------------|
G|-13----11-13-------13-------------------------------------------|
D|----------------------------------------------------------------|
A|----------------------------------------------------------------|
E|----------------------------------------------------------------|

   .. .. .. .. .. .. .. .. .. .. .. .. .. .. .. .. .. .. .. .. .. ..
E|-14-13-10-13-14-16-14-13-14-16-17-16-14-16-17-19-17-16-14-13-16-17-|
B|-------------------------------------------------------------------|
G|-------------------------------------------------------------------|
D|-------------------------------------------------------------------|
A|-------------------------------------------------------------------|
E|-------------------------------------------------------------------|

   .. .. .. .. .. .. .. .. ++ .. ++ ;;  ;; ,, ;;  ;;  ;;  **
E|-16-17-19-16-14-16-17-16-17-19-21-21b-21-17-----------------|
B|--------------------------------------------19b-19b-19b-19b-|
G|------------------------------------------------------------|
D|------------------------------------------------------------|
A|------------------------------------------------------------|
E|------------------------------------------------------------|

 ** , , , ,  , , , ,  , , , , , , , , , , , , , , ,
E|---5p2---2-5p2---2-4p1---1-4p1---1-7p4---4-7p4---4-|
B|-------2-------2-------2-------2-------6-------6---|
G|---------------------------------------------------|
D|---------------------------------------------------|
A|---------------------------------------------------|
E|---------------------------------------------------|

   , , , , , , , , , , , ,  , ,   , , , , , , ,   ,
E|-5p2---2-5p2---2-9p5---5--9p5---5-7p4---4-7p4---4--|
B|-----2--------2------5--------5-------5-------5----|
G|---------------------------------------------------|
D|---------------------------------------------------|
A|---------------------------------------------------|
E|---------------------------------------------------|

    ,, , , , ,, , , , , , , , , , , , ,, , ,, ,
E|--10p7---7-10p7---7-9p5---5-9p5---5-12p9----9--|
B|-------9--------9-------5-------5--------10----|
G|-----------------------------------------------|
D|-----------------------------------------------|
A|-----------------------------------------------|
E|-----------------------------------------------|

   ,, , ,, , ,, ,, ,, ,, ,, ,, ,, ,, ,, ,, ,, ,,
E|--12p9----9-14p10----10-14p10----10-14p11----11--|
B|-------10---------10----------10----------12-----|
G|-------------------------------------------------|
D|-------------------------------------------------|
A|-------------------------------------------------|
E|-------------------------------------------------|

   ,, ,, ,, ,, ,, ,, ,, ,, ,, ,, ,, ,, ,, ,, ,, ,,
E|--16p12----12-16p12----12-16p13----13-16p13----13--|
B|--------12----------12----------14----------14-----|
G|---------------------------------------------------|
D|---------------------------------------------------|
A|---------------------------------------------------|
E|---------------------------------------------------|

   ,, ,, ,, ,, , , ,, , , , , ;
E|--17p14----10p7----------------------|
B|--------14------7-10p7---------------|
G|-----------------------7p4---4b-----|
D|---------------------------4---------|
A|-------------------------------------|
E|-------------------------------------|

   .. . . .  .. .. .. ..  .. . . .  .. .. .. ..
E|--10p7---7--13p10----10--10p7---7--13p10----10--|
B|-------9----------12----------9----------12-----|
G|------------------------------------------------|
D|------------------------------------------------|
A|------------------------------------------------|
E|------------------------------------------------|

   .. .. .. .. .. .. .. ;;  ; ;;  ;; ,, ,, ,, **
E|--16p13----16p13----13-19b---19b-17--------------|
B|--------15-------15-----------------19b19b19b19b-|
G|-------------------------------------------------|
D|-------------------------------------------------|
A|-------------------------------------------------|
E|-------------------------------------------------|
   * ; ; ;; * ; ; ;; , ,, , , , , ,, , , , , ,, ::
E|------------------------------7-12-7--------------|
B|-7-7-9-10-7-7-9-10----------8--------8--------10b-|
G|--------------------------9------------9----------|
D|------------------------9----------------9--------|
A|-------------------7-10--------------------10-----|
E|--------------------------------------------------|

  .. .. .. .. .. .. .. .. .. .. .. .. .. .. .. .. .. .. ..
e|15p14p12-15-14-12-15-14-12-12-14-15-12-17-12-15-14-12-14-
B|----------------------------------------------------------|
G|----------------------------------------------------------|
D|----------------------------------------------------------|
A|----------------------------------------------------------|
E|----------------------------------------------------------|

   .. .. .. .. .. .. .. .. .. .. .. .. .. .. .. .. .. .. ..
E|-15-12-17-12-15-14-14-15-17-15-14-15-17-19-17-15-17-19-20-|
B|----------------------------------------------------------|
G|----------------------------------------------------------|
D|----------------------------------------------------------|
A|----------------------------------------------------------|
E|----------------------------------------------------------|

   .. .. .. .. .. .. .. .. .. .. .. .. .. .. .. .. .. .. .
E|-19-17-15-19-17-15-14-17-15-14-12-15-14-12-10-14-12-10-8-|
B|---------------------------------------------------------|
G|---------------------------------------------------------|
D|---------------------------------------------------------|
A|---------------------------------------------------------|
E|---------------------------------------------------------|

   .. .. . .. .. . .. .. . .. . . .. . . .. . . *  ;  . . . .. ,,
E|-12-10-8-12-10-8----------------------------------------7-12-11v-|
B|-----------------12-10-9------------------------------8----------|
G|-------------------------11-9-7---------------------9------------|
D|--------------------------------10-9-7---------------------------|
A|---------------------------------------10-9-7-7b-7v--------------|
E|-----------------------------------------------------------------|

   .. .. . .. .  ;  ,, ;; ;; ;; ;; ;; ;; **  **
E|-12p11p8-------------12-14-15-17-19-20-22b-22~--|
B|---------10-------12----------------------------|
G|------------9-(9)-------------------------------|
D|------------------------------------------------|
A|------------------------------------------------|
E|------------------------------------------------|
Composição de Hector Walter Giardino / Roxana Clara Giardino
    • ½ Tom
    • Am
    • Bbm
    • Bm
    • Cm
    • C#m
    • Dm
    • Ebm
    • Em
    • Fm
    • F#m
    • Gm
    • G#m
  • Adicionar à lista

    0 comentários

    Ver todos os comentários

    Conseguiu tocar?

    0 Tocaram 0 Ainda não

    Grave um vídeo tocando La Leyenda Del Hada Y El Mago e nos envie!

    00:00 / 00:00
    Outros vídeos desta música
    Repetir Qualidade Automático
    Outros vídeos desta música
    00:00 / 00:00
    Automático

    Cifra Club Pro

    Aproveite o Cifra Club com benefícios exclusivos e sem anúncios
    Cifra Club Pro
    Aproveite o Cifra Club com benefícios exclusivos e sem anúncios
    OK