Cifra Club

Aprenda

Solo para Amarte

Rata Blanca

Cifra: Principal (violão e guitarra)
tom: D
AFINACIÓN: En bemol

INTRO:                                
|-----------------------------------||-------------------------|  |-------||-------------------------|
|-----------------------------------||-------------------------|  |-------||-------------------------|
|-----------------------------------||-------------------------|x4|-------||-------------------------|x4
|-----------------------------------||-5-2---------------------|  |-------||-5-2---------------------|
|-0-0-0-0-0-0-0-0-0-0-0-0-0-0-0-0-0-||-3-0-0-0-0-0-0-0-0-0-0-0-|  |-5-3-2-||-3-0-0-0-0-0-0-0-0-0-0-0-|
|-----------------------------------||-------------------------|  |-------||-------------------------|

Riff A:
|-----------------|
|-----------------|
|---------------2-|
|-2-------------2-|
|-2-------5-3-2-0-|
|-0-0-3-0---------|

Riff B:
|-----------------------------------|-------------------------------------|-------------------------|
|-----------------------------------|-------------------------------------|-------------------------|
|-----------------------------------|-------------------------------------|-------------------------|
|-2---------------------------------|-7-----------------------------------|-------------------------|
|-0-0-0-0-0-0-0-0-0-0-0-0-0-0-0-2-3-|-5-5-5-5-5-5-5-5-5-5-5-5-8-7-5-------|-5-----------------------|
|-----------------------------------|-------------------------------8-7-5-|-3-3-3-3-3-3-3-3-3-3-3-3-|

|------------------------------------|
|------------------------------------|
|------------------------4---------4-|
|------------------------2-2-2-2-2-2-|
|--7----------3----------------------|
|--5-5-5-5-5--1-1-1-1-1--------------|


        REPITE 'Riff A' Y 'Riff B'


Riff C:
|---------------------------|-----------------------|-----------------------------------------|
|---------------------------|-----------------------|-----------------------------------------|
|---------------------------|-----------------------|-----------------------------------------|
|-------7-------------------|-----------------------|-7---------------------------------------|
|-8-7-5-5-5-5-5-5-5-5-5-5-5-|-7---------------------|-5-5-5-5-5-5---------7-------------------|
|---------------------------|-5-5-5-5-5-5-5-5-5-5-5-|-----------3-3-3-3-3-5-5-5-5-5-5-5-5-5-5-|
                            |  Durante esto Riff D  |

|-----------------------------------------------------------------------------|
|-----------------------------------------------------------------------------|
|-----------------------------------------------------------------------------|
|-------7-------------------------------------7-7--9-------------------9-10-9-|
|-8-7-5-5-5-5-5-5-5-5-5-5-5-5--7-7--5-5--1-3--5-5--7-7-7-7-7-7-7-7-7-7-7--8-7-|
|------------------------------5-5--3-3--1-3----------------------------------|

|-12-10------------------|
|-------13-12-10---------|
|----------------12-10-9-|
|------------------------|
|------------------------|
|------------------------|

Riff D:
|-----------------------|
|-----------------------|
|-----5---5-5---5---5-5-|
|-----5---5-5---5---5-5-|
|---0---0-----0---0-----|
|-----------------------|


        REPITE 'Riff A', 'Riff B' Y 'Riff C' 


ESTRIBILLO:
|---------------------------------------------|------------------------------------------|
|---------------------------------------------|------------------------------------------|
|---------------------------------------------|------------------------------------------|
|---------------------------------------------|5-----------------------------------------|
|-7---------------------3---------------------|3-3-3-3-3-3-3-3-3-3-3-5---------6---------|
|-5-5-5-5-5-5-5-5-5-5-5-1-1-1-1-1-1-1-1-1-1-1-|----------------------3-3-3-3-3-4-4-4-4-4-|
|           Durante esto Riff E               |

|---------------------------------------------|------------------------------------------------|
|---------------------------------------------|------------------------------------------------|
|---------------------------------------------|------------------------------------------------|
|---------------------------------------------|-----------------------9------------------------|
|-7---------------------3---------------------|-5---------------------7-7-7-7-7-7--------5-3-2-|
|-5-5-5-5-5-5-5-5-5-5-5-1-1-1-1-1-1-1-1-1-1-1-|-3-3-3-3-3-3-3-3-3-3-3--------------0-3-0-------|
|           Durante esto Riff E               |

|---------------------------------------------|------------------------------------------|
|---------------------------------------------|------------------------------------------|
|---------------------------------------------|------------------------------------------|
|---------------------------------------------|5-----------------------------------------|
|-7---------------------3---------------------|3-3-3-3-3-3-3-3-3-3-3-5---------6---------|
|-5-5-5-5-5-5-5-5-5-5-5-1-1-1-1-1-1-1-1-1-1-1-|----------------------3-3-3-3-3-4-4-4-4-4-|
|           Durante esto Riff E               |

|---------------------------------------------|-----------------------|-------------------|-----------|
|---------------------------------------------|-----------------------|-------------------|-----------|
|---------------------------------------------|-----------------------|-------------------|-----------|
|---------------------------------------------|-----------------------|---9--7--5--4--2---|-7-9-10-12-|
|-7---------------------3---------------------|-5---------------------|---7--5--3--2--0---|-----------|
|-5-5-5-5-5-5-5-5-5-5-5-1-1-1-1-1-1-1-1-1-1-1-|-3-3-3-3-3-3-3-3-3-3-3-|-------------------|-----------|
|           Durante esto Riff E               |                       |Durante esto Riff F|


Riff E:
|-10/12-10-12-10-8-|
|------------------|
|------------------|
|------------------|
|------------------|
|------------------|

Riff F:
|---------|
|---------|
|-9-7-5-4-|
|---------|
|---------|
|---------|

BASE DEL SOLO:
|-------------------------------------------------------------------------------------------------------------------|
|-------------------------------------------------------------------------------------------------------------------|
|-------------------------------------------------------------------------------------------------------------------|  x2
|-9-------------9-------------9-------------9-----------------------------------------------------------------------|
|-7-7-7-7-7-7-7-7-7-7-7-7-7-7-7-7-7-7-7-7-7-7-7-7-7-7-7-7-7-7-------------7-------------7-------------7-------------|
|-----------------------------------------------------------5-5-5-5-5-5-5-5-5-5-5-5-5-5-5-5-5-5-5-5-5-5-5-5-5-5-5-5-|

|--------------------------------------------|-----------------------------------------|
|--------------------------------------------|-----------------------------------------|
|--------------------------------------------|-----------------------------------------|
|-7-7-----5-5-----------7-7-9-9--------------|-7-7-----5-5-10-10-9---------------------|
|-5-5-5-5-3-3-3-3-3-3-3-5-5-7-7-7-7----------|-5-5-5-5-3-3--8--8-7-7-7-7-7-7-7-7-7-7-7-|
|-----3-3-----------------------5-5-5-5-5-5-5|-----3-3---------------------------------|
|                                    Durante esto Riff G                               |


|--------------------------------------------|-----------------------------------------|
|--------------------------------------------|-----------------------------------------|
|--------------------------------------------|-----------------------------------------|
|-7-7-----5-5-----------7-7-9-9--------------|-7-7-----5-5-10-10-9---------------------|
|-5-5-5-5-3-3-3-3-3-3-3-5-5-7-7-7-7----------|-5-5-5-5-3-3--8--8-7-7-7-7-7-7-7-7-7-7-7-|
|-----3-3-----------------------5-5-5-5-5-5-5|-----3-3---------------------------------|
|                                    Durante esto Riff H                               |


|-------------------------|
|-------------------------|
|-------------------------|  x4 y Riff A
|-5-2---------------------|
|-3-0-0-0-0-0-0-0-0-0-0-0-|
|-------------------------|

Riff G:
|------------------|-----------------|------------------------------|
|------------------|-----------------|------------------------------|
|-10-9-10------7-9-|-7-5-7-9-7-4-4/5-|10-9-10------7-9-7-9-10-9-7-9-|
|---------9-10-----|-----------------|--------9-10------------------|
|------------------|-----------------|------------------------------|
|------------------|-----------------|------------------------------|

Riff H:
|-------------------|-----------------|------------------------------|
|-------------------|-----------------|------------------------------|
|-10-9-10-12-10-7-9-|-7-5-7-9-7-4-4/5-|10-9-10------7-9-7-9-10-9-7-9-|
|-------------------|-----------------|--------9-10------------------|
|-------------------|-----------------|------------------------------|
|-------------------|-----------------|------------------------------|


        REPITE 'Riff A', 'Riff B' Y 'Riff C'



FINAL:
        C5 A5 B5 G#5 A5



        Aguante LA RATA
Composição de Walter Giardino
Colaboração e revisão:
  • Yuri Rocha
4.740 exibições
    • ½ Tom
    • A
    • Bb
    • B
    • C
    • Db
    • D
    • Eb
    • E
    • F
    • F#
    • G
    • Ab
  • Adicionar à lista

    0 comentários

    Ver todos os comentários

    Conseguiu tocar?

    0 Tocaram 0 Ainda não

    Grave um vídeo tocando Solo para Amarte e nos envie!

    00:00 / 00:00
    Outros vídeos desta música
    Repetir Qualidade Automático
    Outros vídeos desta música
    00:00 / 00:00
    Automático

    Cifra Club Pro

    Aproveite o Cifra Club com benefícios exclusivos e sem anúncios
    Cifra Club Pro
    Aproveite o Cifra Club com benefícios exclusivos e sem anúncios
    OK