Cifra Club

Aprenda

Volviendo A Casa

Rata Blanca

Cifra: Versão 5 (violão e guitarra)
tom: Dm
INTRO:
E|---------------------------------------------------------------------|
B|---------------------------------------------------------------------|
G|------------9--9--10---7~-7-7-9---5~--5-5-7---4~----4---7-5-4--------|
D|--3--5--7---10-10-10---9~-9-9-9---7~--7-7-7---5~--5---5-------5/7~---|
A|--3--5--7------------------------------------------------------------|
E|--1--3--5------------------------------------------------------------|

E|-----------------------------------------------|
B|-----------------------------------------------|
G|--9--9--10---7~-7-7-9---5~--5-5-7--------------|
D|--10-10-10---9~-9-9-9---7~--7-7-7--------------|
A|-----------------------------------5---0-2-3---|
E|-----------------------------------------------|
                                   +(armónico)

     Hoy      voy regresando   hacia  mi  hogar.........
E|--------------------------------------------------------------|
B|--------------------------------------------------------------|
G|--5---5-5--5-5--5-5--5-5--5-5--5-5--5-5--5-5--5-5--5-5--5-5---|
D|--7---7-7--7-7--7-7--6-6--6-6--6-6--6-6--5-5--5-5--5-5--5-5---|
A|--------------------------------------------------------------|
E|--------------------------------------------------------------|
     p.m. .  . .  . .  . .  . .  . .  . .  . .  . .  . .  . .
E|---------------------------------------------------------------|
B|---------------------------------------------------------------|
G|--5-5--5-5--5-5--5-5--5-5--5-5--5-5--5-5--5-5--5-5--5-5--5-5---|
D|--4-4--4-4--4-4--4-4--3-3--3-3--3-3--3-3--2-2--2-2--2-2--2-2---|
A|---------------------------------------------------------------|
E|---------------------------------------------------------------|
    . .  . .  . .  . .  . .  . .  . .  . .  . .  . .  . .  . .
                                  Hoy   igual que un perro trabajé....
E|------------------------------------------------------------------------|
B|------------------------------------------------------------------------|
G|7-7--7-7--7-7--7-7--7-7--7-7--7-7----5~-x-x-x--5--5~-x-x-x--5--5~-x-x-x-|
D|7-7--7-7--7-7--7-7--7-7--7-7--7-7-8--7~-x-x-x--7--6~-x-x-x--6--5~-x-x-x-|
A|--------------------------------5-8--7~-x-x-x--7--7~-x-x-x--7--7~-x-x-x-|
E|----------------------------------6--5~-x-x-x--5------------------------|
  . .  . .  . .  . .  . .  . .  .         . . .        . . .        . . .
                       Algo de dinero y el
E|-------------------------------------------|
B|-------------------------------------------|
G|--5--5--x-5~--x-x-5~---x-x-x-5-------------|
D|--5--4--x-4~--x-x-3~---x-x-x-3--2-0--------|
A|--7--5--x-5~--x-x-3~---x-x-x-3------3-2~---|
E|-------------------------------------------|
          .     . .      . . .
  dolor..........
E|----1-----------------------------------------------------------------|
B|----1-----------------------------------------------------------------|
G|2---2----7---------------5~---10--9--7--9~--7-------------------------|
D|3---3-2--7---------------5~---10--9--7--9~--7-------------------------|
A|3--------5--0-3-3/5--0-3-3~-----------------5--0-3-3/5--0-3-3/5--0-3--|
E|1---------------------------------------------------------------------|
                  . .    . .                         . .      . .    . .
                                               (palm mute)
                      Es todo tan veloz            ven por favor...
E|------0----------------------------------------------|
B|------0----------------------------------------------|
G|------0----------5----------------------------5------| 60
D|--2---2----5--3--5--5~------------------5--3--5--5~--|
A|--2--------5--3--3--5~------------------5--3--3--5~--|
E|--0--------3--1-----3~------------------3--1-----3~--|

CORO:
  Ángel........     Tiene la llave.......
E|-------------------------------------------------------------------|
B|-------------------------------------------------------------------|
G|5--------------------7----5--3----2--------------------------------|
D|5-----7----2----5----7----5--3----2--5-----5-3p2-0-----5-3p2-0-----|
A|3-----7----2----5----5----3--1----0--5-----------------------------|
E|------5----0----3--------------------3---3---------3-3---------3---|
    Dame........           Te necesita...........
E|-----------------------------------------------------------------|
B|-----------------------------------------------------------------|
G|--5-----------------------7----5--3----2-------------------------|
D|--5-----7-----2-----5-----7----5--3----2--5-----5-3p2-0------5---|
A|--3-----7-----2-----5-----5----3--1----0--5----------------------|
E|--------5-----0-----3---------------------3---3----------3-3-----|

INTRO:
E|-----------------------------------------------------------------------|
B|-----------------------------------------------------------------------|
G|------------9--9--10---7~-7-7-9---5~--5-5-7---4~----4---7-5-4h5p4------|
D|--3--5--7---10-10-10---9~-9-9-9---7~--7-7-7---5~--5---5-----------7~---|
A|--3--5--7--------------------------------------------------------------|
E|--1--3--5--------------------------------------------------------------|

E|------------------------------------------------|
B|------------------------------------------------|
G|--9--9--10---7~-7-7-9---5~--5-5-7---------------|
D|--10-10-10---9~-9-9-9---7~--7-7-7---------------|
A|----------------------------------------0-2-3---|
E|-----------------------------------3~~----------|

  Soy quien desespera por llegar...
E|------------------------------------------------------------------------|
B|--------------------------------/-11~~----------------------------------|
G|----------5--7~~---9--10--9~~-----------5-------------5--4~~------------|
D|7~~----7------------------------------------7~~--7~~-----------6~~---7~~|
A|------------------------------------------------------------------------|
E|------------------------------------------------------------------------|

       Tú sabes que es duro progresar...
E|------------------------------------------|
B|------------------------------------------|
G|---5~--x-x-x--5--5~--x-x-x--5--5~--x-x-x--|
D|8--7~--x-x-x--7--6~--x-x-x--6--5~--x-x-x--
A|8--7~--x-x-x--7--7~--x-x-x--7--7~--x-x-x--
E|6--5~--x-x-x--5---------------------------
         . . .         . . .         . . .
                            porque con tu
E|--------------------------------------------|
B|--------------------------------------------|
G|-5--5~--x-x-x--5--5~--x-x-x-5---------------|
D|-5--4~--x-x-x--4--3~--x-x-x-5--2--0---------|
A|-7--5~--x-x-x--5--3~--x-x-x-3--------3--2~--|
E|--------------------------------------------|
        . . .         . . .
  amor...
E|----1------------------------------------------------------------------|
B|----1------------------------------------------------------------------|
G|2---2----7---------------5~---10--9--7--9~--7--------------------------|
D|3---3-2--7---------------5~---10--9--7--9~--7--------------------------|
A|3--------5--0-3-3/5--0-3-3~-----------------5--0-3-3/5--0-3-3/5--0-3---|
E|1----------------------------------------------------------------------|

                      Que tú lo encenderás,        es lo mejor...
E|------0----------------------------------------------|
B|------0----------------------------------------------|
G|------0----------5----------------------------5------|
D|--2---2----5--3--5--5~------------------5--3--5--5~--|
A|--2--------5--3--3--5~------------------5--3--3--5~--|
E|--0--------3--1-----3~------------------3--1-----3~--|

VUELVE AL CORO

G  O:
E|-----------------------------------------------------------------------|
B|-----10~/12~--13~10~--9~/12~--8~5~/-7~--10~/13~--10~/13~--/-15~------|
G|-------------------------------------------------------------------14-|
D|3-5----------------------------------------------------------------14-|
A|3-5--------------------------------------------------------------------|
E|1-3--------------------------------------------------------------------|

  º!    !   !                                     *!
E|------------------------------------------------------------------------|
B|----------------------------------------10--12-12(13)12-10--------------|
G|7(9)-(9)-(9)7--5h7p5--4--5--7----9--12----------------------12(14)------|
D|--------------------------------------------------------------------10~-|
A|------------------------------------------------------------------------|
E|------------------------------------------------------------------------|

º aqui el simbolo ¨!¨ indica cuando se le da con la pua.

* aqui se estira y luego retorna.
                                                       Fortuna me das
E|--------13--17p15--12--10--8-------------------------------------------|
B|------------------------------12--10--8--------------------------------|
G|13/14~-----------------------------------10--9--7~-----------------5---|
D|-------------------------------------------------------------------5---|
A|------------------------------------------------------0-3-3/5--0-3-3---|
E|------------------------------------------------|----------------------|
                                          FIN DEL G  O      . .    . .
E|--------------------------------------------|
B|--------------------------------------------|
G|--10--9--7--9~---7--------------------------|
D|--10--9--7--9~---7--------------------------|
A|-----------------5--0-3-3/5--0-3-3/5--0-3---|
E|--------------------------------------------|
                      Es todo tan veloz,          ven por favor.
E|------0----------------------------------------------|
B|------0----------------------------------------------|
G|------0----------5----------------------------5------|
D|--2---2----5--3--5--5~------------------5--3--5--5~--|
A|--2--------5--3--3--5~------------------5--3--3--5~--|
E|--0--------3--1-----3~------------------3--1-----3~--|
                    Todo lo que me das,       es lo mejor.
E|----0-------------------------------------------------------------------|
B|----0-----------------------------------------10(12)(10)(12)(10)----8---|
G|----0----------5-------------------7--9--10---*| !--------------------7---|
D|2---2----5--3--5--5~------------------------------------------------5---|
A|2--------5--3--3--5~---------------5--7--8------------------------------|
E|0--------3--1-----3~----------------------------------------------------|

CORO FINAL:
    Ángel.......            Tiene la llave.......
E|------------------------------------------------------------------------|
B|------------------------------------------------------------------------|
G|--5-----------------------7----5--3----2--------------------------------|
D|--5-----7-----2-----5-----7----5--3----2--5-----5-3p2-0-----5-3p2-0-----|
A|--3-----7-----2-----5-----5----3--1----0--5-----------------------------|
E|--------5-----0-----3---------------------3---3---------3-3---------3---|
    Dame........            Te necesita...........
E|------------------------------------------------------------------------|
B|------------------------------------------------------------------------|
G|--5-----------------------7----5--3----2--------------------------------|
D|--5-----7-----2-----5-----7----5--3----2--5-----5-3p2-0------5-3p2-0----|
A|--3-----7-----2-----5-----5----3--1----0--5-----------------------------|
E|--------5-----0-----3---------------------3---3----------3-3---------3--|
    Ángel........           Tiene la llave.......
E|----------------------------------------------------------------|
B|----------------------------------------------------------------|
G|--5-----------------------7----5--3----2------------------------|
D|--5-----7-----2-----5-----7----5--3----2--5-----5-3p2-0-----5---|
A|--3-----7-----2-----5-----5----3--1----0--5---------------------|
E|--------5-----0-----3---------------------3---3---------3-3-----|
    volviendo a casa estoy...
E|---------------------------------------------------------------------|
B|---------------------------------------------------------------------|
G|------------9--9--10---7~-7-7-9---5~--5-5-7---4~----4---7-5-4--------|
D|--3--5--7---10-10-10---9~-9-9-9---7~--7-7-7---5~--5---5-------5/7~---|
A|--3--5--7------------------------------------------------------------|
E|--1--3--5------------------------------------------------------------|

E|--------------------------------------------------------------|
B|--------------------------------------------------------------|
G|--9--9--10---7~--7-7-9---5~--5-5-7---4~----4---7-5-4h5p4------|
D|--10-10-10---9~--9-9-9---7~--7-7-7---5~--5---5-----------7~---|
A|--------------------------------------------------------------|
E|--------------------------------------------------------------|

E|------------------------------------------------------------|
B|------------------------------------------------------------|
G|--9--9--10---7~--7-7-9---5~--5-5-7---4~----4---7-5-4--------|
D|--10-10-10---9~--9-9-9---7~--7-7-7---5~--5---5-------5/7~---|
A|------------------------------------------------------------|
E|------------------------------------------------------------|

E|------------------------------------|
B|------------------------------------|
G|--9--9--10---7~--7-7-9---5~--5-5-7--|
D|--10-10-10---9~--9-9-9---7~--7-7-7--|
A|------------------------------------|
E|------------------------------------|

E|-----------------------------------------------|
B|-----------------------------------------------|
G|--------------------------5--------------------|
D|-5--3--2------------------5--7---7--7---5--7---|
A|----------5--3--2---------3--7---7--7---5--7---|
E|-------------------5--3------5---5--5---3--5---|


~   vibratos
 +   armonicos
 x   silencio de cuerda
 .   palm mute
 h   hammer on
 p   pull off
 /   slide up
    slide down
 ( ) bend (estirado de cuerda)
Composição de Walter Giardino
    • ½ Tom
    • Am
    • Bbm
    • Bm
    • Cm
    • C#m
    • Dm
    • Ebm
    • Em
    • Fm
    • F#m
    • Gm
    • G#m
  • Adicionar à lista

    0 comentários

    Ver todos os comentários

    Conseguiu tocar?

    0 Tocaram 0 Ainda não

    Grave um vídeo tocando Volviendo A Casa e nos envie!

    00:00 / 00:00
    Outros vídeos desta música
    Repetir Qualidade Automático
    Outros vídeos desta música
    00:00 / 00:00
    Automático

    Cifra Club Pro

    Aproveite o Cifra Club com benefícios exclusivos e sem anúncios
    Cifra Club Pro
    Aproveite o Cifra Club com benefícios exclusivos e sem anúncios
    OK