Cifra Club

Aprenda

Volviendo A Casa

Rata Blanca

Cifra: Versão 3 (violão e guitarra)
tom: Dm
INTRO:

E|----------------------------------------------------|
B|-----------5-5-6--3--3-3-5--1--1-1-3--0-0-----------|
G|-----------5-5-5--4--4-4-4--2--2-2-2--0-0--7-5-4----|
D|-3--5--7---7-7-7--5--5-5-5--3--3-3-3--2-2--------7--|
A|-3--5--7--------------------------------------------|
E|-1--3--5--------------------------------------------|

E|--------------------------------------|
B|--5-5-6--3--3-3-5--1--1-1-3-----------|
G|--5-5-5--4--4-4-4--2--2-2-2-----------|
D|--7-7-7--5--5-5-5--3--3-3-3--5~-------|
A|-------------------------------0-2-3--|
E|--------------------------------------|


Am             Am(maj7)            Am7
Hoy voy regresando hacia mi hogar

             Gm(maj7)
La noche está llegando

Gm7               Em            Dm
Y el ruido del tren me adormeció.  (Bb5- A5)


Am           Am(maj7)      Am7
Hoy igual que un perro trabajé

             Gm(maj7)
Para llevar a casa

Gm7          (E D   C   B)  F  Dm  (A C D -A C D)      C        b|--6-5-3-5--|
Algo de dinero y el dolor,             de la dura ciudad        g|--5-5-5-5--|

Dm       (A C D - A C D)            Em
    De ti,    beberé un poco de paz.

G F C G                         G F C G
         Es todo tan veloz,          ven por favor.


C      Am               Em     G
Ángel,   Ella es un ángel.
                D           C  Bb        Am   G
Tiene la llave que devuelve la ilusión.

D|---5-4| -0---5-4-0--|
A|----------------------|
E|-3~--------3~---------|

C       Am                 Em    G
Dame,    dame un instante,
            D           C   Bb       Am G         D|---5-4-0-|
Te necesita mi cansado corazón.                   A|-----------|
E|-3~--------|
                F       G  Am   (intro)
El fuego no se apagó


Soy quien desespera por llegar
Y recorrer el barrio
Y encontrar caminos que extravié

Tú sabes que es duro progresar
Y aunque esto nunca cambie
No me importa porque con tu amor
Fortuna me das
Sentir siempre que el fuego estará
Que tú lo encenderás, es lo mejor

Ángel...

Solo: (mas o menos)
E|------------------------------------------------------|
B|-9(11)-9(12)9-8-8(11)7--------9(12)-9(12)-12(14)~7(9)-|
G|-----------------------8(10)--------------------------|
D|------------------------------------------------------|
A|------------------------------------------------------|
E|------------------------------------------------------|

E|------------------------------------4-6-6(7)6-4--------------|
B|----------------------------------4-------------7(9)7---7(9)-|
G|--6(8)-6(8)6(8)6-4-6-4-3-4-6-6(8)---------------------4------|
D|-------------------------------------------------------------|
A|-------------------------------------------------------------|
E|-------------------------------------------------------------|

E|-15(17)15-13-12-8(10)8-7-5-| D|-5-3-2-----------
B|---------------------------| a la vez  A|-------5-3-2-----      2 guitarras
G|---------------------------| E|-------------5-3-

Fortuna me das
De ti, beberé un poco de paz.
Es todo tan veloz,  ven por favor.
Todo lo que me das, es lo mejor.

Ángel...  (x2)

Volviendo a casa estoy,   yo estoy,   yendo a casa estoy, volviendo a casa estoy
(sobre intro)

Final
E|----------------------------------|
B|----------------------------------|
G|--------------------5--2-2--------|
D|--5-3-2-------------5--2-2---5-7--|
A|---------5-3-2------3--0-0---5-7--|
E|---------------5-3-----------3-5--|
Composição de Walter Giardino
    • ½ Tom
    • Am
    • Bbm
    • Bm
    • Cm
    • C#m
    • Dm
    • Ebm
    • Em
    • Fm
    • F#m
    • Gm
    • G#m
  • Adicionar à lista

    0 comentários

    Ver todos os comentários

    Conseguiu tocar?

    0 Tocaram 0 Ainda não

    Grave um vídeo tocando Volviendo A Casa e nos envie!

    00:00 / 00:00
    Outros vídeos desta música
    Repetir Qualidade Automático
    Outros vídeos desta música
    00:00 / 00:00
    Automático

    Cifra Club Pro

    Aproveite o Cifra Club com benefícios exclusivos e sem anúncios
    Cifra Club Pro
    Aproveite o Cifra Club com benefícios exclusivos e sem anúncios
    OK