Cifra Club

Aprenda

Volviendo A Casa

Rata Blanca

Cifra: Versão 4 (violão e guitarra)
tom: Am
Intro:

 F5 G5 A5
                                  ¦xx¦
E|----------------------------------------------------|
B|----------------------------------------------------|
G|-9---9---10--7--7--7--9---5--5--5--7--4---4--7-5-4--|
D|-10--10--12--9--9--9--10--7--7--7--9--5--5-5--------|
A|--------------------------------------------------0-|
E|----------------------------------------------------|

E|-----------------------------------------------|
B|-----------------------------------------------|
G|-9---9---10--7--7--7--9---5--5--5--7-------4-5-|
D|-10--10--12--9--9--9--10--7--7--7--9--(5)~7----|
A|-----------------------------------------------|
E|-----------------------------------------------|


Canción:

     Voy, voy regresando  hacia mi hogar  la noche esta llegando  y el ruido del tren me adormeció.

       |xxxxxxxxxxxxxxxxxxxxxxxxxxxxxxxxxxxxxxxxxxxxxxxxxxxxxxxxxxxxxxxxxxxxxxxxxxxxxxxxxxxxxxxxxxxxxxxxxxxxxxxxx|
G|--5-5-5-5-5-5-5-5-5-5-5-5-5-5-5-5-5-5-5-5-5-5-5-5-5-5-5-5-5-5-5-5-5-5-5-5-5-5-4-4-4-4-4-4-4-2-2-2-2-2-2-2-2-2-2-|
D|--7-7-7-7-7-7-7-6-6-6-6-6-6-6-6-6-5-5-5-5-5-5-5-5-4-4-4-4-4-4-3-3-3-3-3-3-3-3-2-2-2-2-2-2-2-0-0-0-0-0-0-0-0-0-0-|

     hoy igual q un       perro tra ba  je    para llebar a casa  algo de  di ne ro y el dolooooooor
          |..........|        |xxxxx|       |xxxxx|    |x|   |x|    |xxx|
   A#5 A5             G|-5----5-5-5-5--5----5-5-5-5--5--5--5--5--5--5-5-5-5--2--0---------| F5
D|-6----6-6-6-6--5----5-5-5-5--4--4--4--4--3--3-3-3-3---------3---2-|


     en  la  dura ciudaaaad          ooh ooh ooh,

     D5  C5 » D5      C5      G|-12---9---7---5--|
D|-10---10--9---7--|


     sentir siempre q el fuego estaraaaaaaaaaaaaaa,      es todo tan velos,              ven por favor.

     D5     C5 » D5   C5 » D5         E        G|-7--5-| C5 G5              G|-7--5-| C5 G5
D|-5--3-| D|-5--3-|


Estribillo:

     Angel   ella es un angel     tiene la llave q de vuelve la ilusión

     C5    A5           Em   G             D5      C5 A#5        A5 G5


D|-5-3-2-0---5-3-2-0-|
A|-------------------|
E|---------3---------|


     Dame   dame un instante      te nesecita mi cansado cora zón

     C5   A5           Em   G            D5      C5 A#5    A5 G5


D|-5-3-2-0---5-|
A|-------------|
E|---------3---|


Intro


Canción:

     Soy quien desespera por llegar y recorrer el barrio y encontrar caminos  q extrabie, ooh ooh ooh.

                         /           / \n e|-------------------------------------------------------------------------------------|
B|----------------------------------------12-------------------------------------------|
G|----------------------------9-----------------------------------------------------14-|
D|------------9-10-12-----------------------------10-----------------10-12---9---------|
A|-12---12------------------------------------------12---------------------------------|
E|-------------------------------------------------------------------------------------|


Repetir lo mismo q antes:

      Tu sabes q es duro progresar y aunque esto nunca cambie no me importa porque con
      tu amor fortuna me das, ooh ooh ooh, sentir siempre q el fuego estara, que tu lo
      encenderas, es lo mejor.


Estribillo

 F5 G5 A5

Los solos tienen coro, mi recomendacion hacerlo con 2 guitarras o grabarlo ya q queda mejor.


Solo 1:

Esta parte Walter la toca con un slide (es un tubito q se coloca en el dedo) todo sobre una
misma cuerda y ademas usa el efecto Chorus, yo voy a remarcar las notas.

E|---------------------------|
B|----10-12-13-10-9-12-8-5-7-|
G|---------------------------|
D|---------------------------|
A|---------------------------|
E|---------------------------|

Esta parte va en coro:

E|----------------------|
B|-10-13-10-13-15-15-15-|
G|----------------------|
D|----------------------|
A|----------------------|
E|----------------------|

E|----------------------|
B|----------------------|
G|-10-14-9--14-14-14-14-|
D|----------------------|
A|----------------------|
E|----------------------|


Solo 2:
                                     / \n e|------------------------------------------------------------------------17-16-13-------------------|
B|------------------------------10-12-13-12-10---------------10-10--10-13----------17-15-13----------|
G|-9--9-9-9-----------------9-9----------------12----------9--------------------------------16-12-14~|
D|----------12-10-9--10-12--------------------------10--10-------------------------------------------|
A|---------------------------------------------------------------------------------------------------|
E|---------------------------------------------------------------------------------------------------|

Esta parte también va en coro

E|------------------------------------------------------------------------13-12-10-------------------|
B|---------------------------------------------------------------------------------13-12-10----------|
G|------------------------------------------------------------------------------------------12-9--10~|
D|---------------------------------------------------------------------------------------------------|
A|---------------------------------------------------------------------------------------------------|
E|---------------------------------------------------------------------------------------------------|


Canción:

      fortuna me das, ooh ooh ooh, de ti bebere un poco de paz, es todo tan velos, ven por
      favor, todo lo q me das, es lo mejor.


Estribillo


Intro:

F5 G5 A5
                                  ¦xx¦
E|----------------------------------------------------|
B|----------------------------------------------------|
G|-9---9---10--7--7--7--9---5--5--5--7--4---4--7-5-4--|
D|-10--10--12--9--9--9--10--7--7--7--9--5--5-5--------|
A|--------------------------------------------------0-|
E|----------------------------------------------------|

                                  ¦xx¦
E|----------------------------------------------------|
B|----------------------------------------------------|
G|-9---9---10--7--7--7--9---5--5--5--7--4---4--7-5-4--|
D|-10--10--12--9--9--9--10--7--7--7--9--5--5-5--------|
A|--------------------------------------------------0-|
E|----------------------------------------------------|

E|------------------------------------------------------|
B|------------------------------------------------------|
G|-9---9---10--7--7--7--9---5--5--5--7------------------|
D|-10--10--12--9--9--9--10--7--7--7--9--5-3-2-----------|
A|--------------------------------------------5-3-2-----|
E|--------------------------------------------------5-3-|

 C5 A5 A5   G5 A5
Composição de Walter Giardino
    • ½ Tom
    • Am
    • Bbm
    • Bm
    • Cm
    • C#m
    • Dm
    • Ebm
    • Em
    • Fm
    • F#m
    • Gm
    • G#m
  • Adicionar à lista

    0 comentários

    Ver todos os comentários

    Conseguiu tocar?

    0 Tocaram 0 Ainda não

    Grave um vídeo tocando Volviendo A Casa e nos envie!

    00:00 / 00:00
    Outros vídeos desta música
    Repetir Qualidade Automático
    Outros vídeos desta música
    00:00 / 00:00
    Automático

    Cifra Club Pro

    Aproveite o Cifra Club com benefícios exclusivos e sem anúncios
    Cifra Club Pro
    Aproveite o Cifra Club com benefícios exclusivos e sem anúncios
    OK