Asas da Vingança

Ratos de Porão

Composição de: Ratos de Porão
tom: G
Intro e base

e|------------------|
b|------------------|
g|-4---4-5----------|
d|-4---4-5-5-222222-|
a|-2---2-3-5-222222-|
E|---------3-000000-|


Refrão

e|------------------|
b|------------------|
g|--------------9---|
d|--7-7---7-8-5-9---|
a|--7-7---7-8-5-7---|
E|--5-5---5-6-3-----|


Base

Sentimento de culpa
Pela guerra que virá
Sob a terra devastada
Ainda temos que lutar

Refrão

Asas da vingança - 2x

Base

Veio a fome veio a guerra
Veio a peste veio a morte
Nunca a vida foi tão amarga
Não basta só chorar


Refrão

Asas da vingança
Página 1 / 1

Letras e título
Acordes e artista

resetar configurações
OK