Cifra Club

Covardia de Plantão

Ratos de Porão

Cifra: Principal (violão e guitarra)
tom: G
Intro:

E|--------------------|
B|--------------------|
G|--------------------|
D|--7-----76--2-2-2-2-|
A|--6-----65--2-2-2-2-|
E|----000-----0-0-0-0-|

E|---------------------------------------------|
B|---------------------------------------------|
G|---------------------------------------------|
D|-------------------3\6----------5\8----------|
A|--------5\8--------1\4----------3\6----5/4-8-|
E|-000000-3\6-000000-----000000----------3/2-6-|

E|----------------------------------------|
B|-----------------7777--10101010-77710---|
G|-----------------6666--9999-----6669----|
D|-----------------4444--7777-----4447----|
A|-5/4-8--5/4-8---------------------------|
E|-3/2-6--3/2-6---------------------------|

E|----------------------------------------------------|
B|----------------------------------------------------|
G|----------------11-11-11-11-11-11-14-14-14-14-14-14-|
D|-2-2--9-7-9-----11-11-11-11-11-11-14-14-14-14-14-14-|
A|-2-2--7-5-7-----------------------------------------|
E|-0-0------------------------------------------------|

E|-----------------------|
B|-----------------------|
G|-----------------------|
D|--7-----7-6------------|
A|--6-----6-5-8------5-2-|
E|----000-----6-000--3-0-|
     
E|----------------------|
B|----------------------|
G|-999-999--------------|               
D|-xxx-xxx--------------|               
A|-777-777-----5---5\8--|
E|----------0--3-0-3\6--|              

E|------------------------------------|
B|------------------------------------|
G|------------------------------------|
D|---------33-----------8-------- ----|
A|---------11-----------7-------------|
E|-000-333----000-333-0----000-000-00-|
Composição de Juninho
Colaboração e revisão:
  • Anderson Silva
274 exibições
    • ½ Tom
    • A
    • Bb
    • B
    • C
    • Db
    • D
    • Eb
    • E
    • F
    • F#
    • G
    • Ab
  • Adicionar à lista

    0 comentários

    Ver todos os comentários

    Conseguiu tocar?

    0 Tocaram 0 Ainda não

    Grave um vídeo tocando Covardia de Plantão e nos envie!

    00:00 / 00:00
    Outros vídeos desta música
    Repetir Qualidade Automático
    Outros vídeos desta música
    00:00 / 00:00
    Automático

    Cifra Club Pro

    Aproveite o Cifra Club com benefícios exclusivos e sem anúncios
    Cifra Club Pro
    Aproveite o Cifra Club com benefícios exclusivos e sem anúncios
    OK