Cifra Club

Crocodila

Ratos de Porão

Tab de baixo: Principal
(intro/refrão/solo)			(passagem)
g|------------------------------|--------------|
d|------------------------------|--------------|
a|-------1----------------------|-----1---1-4~-|
e|-3-3-3---1--23-3-3-3-23-3-3-3-|-3-----3------|

(verso)
g|-------------------------|
d|-------------------------|
a|------1------1---4---7---|
e|-3-3----3-3--------------|
00:00 / 00:00
Outros vídeos desta música
Repetir
Outros vídeos desta música
Compositor não encontrado.
Colaboração e revisão:
  • felipe augusto
940 exibições

0 comentários

Ver todos os comentários

Conseguiu tocar?

0 Tocaram 0 Ainda não

Grave um vídeo tocando Crocodila e nos envie!

00:00 / 00:00

Cifra Club Pro

Aproveite o Cifra Club com benefícios exclusivos e sem anúncios
Cifra Club Pro
Aproveite o Cifra Club com benefícios exclusivos e sem anúncios
OK