Cifra Club

John Travolta

Ratos de Porão

Tab de baixo: Principal
(verso)
g||--------------------||
d||--------------------||
a||3----3------55---55-||
e||--55---55-5----5----||

(verso 2)
g||----------||
d||----------||
a||3----3----||
e||--55---55-||

(marcação)
g||--||
d||--||
a||3-||
e||--||

(ponte)
g||--------------------------------------||
d||--------------------------------------||
a||3----3------55-------------5555555555-||
e||--55---55-5----55555555555------------||

(verso  2x)
(verso2 1x)
(verso  1x)
(verso2 1x)
(marcação 1x)
(verso2 2x)
(verso  5x)
(ponte  1x)
(verso  4x)
(verso2 1x)
(verso  1x)
(verso2 1x)
(marcação 1x)
(verso2 2x)
00:00 / 00:00
Outros vídeos desta música
Repetir
Outros vídeos desta música
Compositor não encontrado.
Colaboração e revisão:
  • felipe augusto
692 exibições

0 comentários

Ver todos os comentários

Conseguiu tocar?

0 Tocaram 0 Ainda não

Grave um vídeo tocando John Travolta e nos envie!

00:00 / 00:00

Cifra Club Pro

Aproveite o Cifra Club com benefícios exclusivos e sem anúncios
Cifra Club Pro
Aproveite o Cifra Club com benefícios exclusivos e sem anúncios
OK