Wanted Man

Ratt

Composição de: Joey Cristofanilli / Robbin Crosby / Stephen Pearcy

G|-------9-7-0-5-0-7--------9-7-0-5-0-7---|
D|--------------------------9-7-0-5-0-7---|
A|----------------------------------------|
E|-0-0-0--------------0-0-0---------------|

G|----------------------------------------|
D|-5-5-5-5-5----------------7-6-7-0-------|
A|-----------3-2-0------------------------|
E|------------------0-0-0-0---------------|


Easy: intro   100% correct

Tabbed by: TAz Mckell
Página 1 / 1

Letras e título
Acordes e artista

resetar configurações
OK