Cifra Club

Aprenda

Eu Nasci Há 10 Mil Anos Atrás

Raul Seixas

Tab de baixo: Principal
A história do início é falada sem o baixo ...


"Eu nasci há 10 mil anos atrás ..."
G|--------------------------------------------------------------------|
D|--------------------------------------------------------------------|
A|--------45-55-554-------45-547-74-------45-55-5547-77-77-57-57-574--|  x2
E|-5-55-55---------5-55-55---------5-55-55----------------------------|

"Eu vi Cristo ser crucificado ..."
G|--------------------------------------------------------------------|
D|----------------47-77-7754-44-44------------------------------------|
A|-5-55-5545-55-55----------------57-77-7757-77-774-------4-------4---|
E|-------------------------------------------------5-55-55-5-55-55----|

"Eu vi Moisés cruzar o Mar Vermelho..."
G|--------------------------------------------------------------------|
D|----------------47-77-775-------79-99-996-------67-77-776-----------|
A|-5-55-5545-55-55---------8-88-88---------7-77-77---------7-77-774---|
E|--------------------------------------------------------------------|

Repete essa seqüencia até o último verso ...

"Eu fui testemunha do amor de Rapunzel..."
G|--------------------------------------------------------------------|
D|----------------47-77-775-------79-99-996-------67-77-775-----------|
A|-5-55-5545-55-55---------8-88-88---------7-77-77---------8-88-884---|
E|--------------------------------------------------------------------|

O final da música é em Bb, Eb e F ...

"Eu nasci há 10 mil anos atrás ..."
G|--------------------------------------------------------------------|
D|--------------------------------------------------------------------|
A|--------56-66-665-------56-658-85-------56-66-6658-88-88-68-68-685--|  x2
E|-6-66-6----------6-66-66---------6-66-66----------------------------|

Preste atenção nas passadas de nota, pra marcar o ritmo da música ..

_______________________________________________________
Contribuição: Marcelo Laet(marclaet@yahoo.com.br)
Composição de Paulo Coelho / Raul Seixas
28.576 exibições

0 comentários

Ver todos os comentários

Conseguiu tocar?

0 Tocaram 0 Ainda não

Grave um vídeo tocando Eu Nasci Há 10 Mil Anos Atrás e nos envie!

00:00 / 00:00
outros vídeos desta música
repetir qualidade Automático
Outros vídeos desta música
00:00 / 00:00
Automático

Cifra Club Pro

Aproveite o Cifra Club com benefícios exclusivos e sem anúncios
Cifra Club Pro
Aproveite o Cifra Club com benefícios exclusivos e sem anúncios
OK