Cifra Club

Meu Amigo Pedro

Raul Seixas

Tab de baixo: Principal
[Intro] 

          G
G|-------------------------------------|
D|-----5--------------------------(5)--|
A|-5-7---------5-5------5-(5)-(7)------|
E|--------3--3-----3--3----------------|

 G               C             G                  C           G  
Muitas vezes Pedro ...
G|---------------------------------------------------------------------|
D|------------------5--5-----5--5-----5------5-------5------5----------|
A|-----5-5------3-3------5-5------5-5----5-5-----3-3----5-5--------2-3-|
E|3--3-----3--3------------------------------------------------3-5-----|

Quem te fez com ferro ...
G|-C-------------G------------D----------D7------G------------|
D|------------5------5----5-------------------------------5---|
A|-----3----3----5-5----5---5------5----5----5-5----5-5-7-----|
E|-3-3----3--------------------5-5----5---3------3----------3-|

Vai pro seu trabalho ...
  G          C                  G                    C              G   
G|-------------------------------------------------------------------------------|
D|-------------------------------------5---------------------5--x-----5----------|
A|------5-5------3-3------5-5----5-5-7----------5-5------3-3------5-5--------2-3-|
E|-3--3-----3--3-----3--x-----3------------3--3-----3--3-----------------3-5-----|

Quando quer chorar ...
   C                G                     D        D7         G
G|-------------------------------------------------------------------|
D|---5-5------5-5----------------------------------------------------|
A|-3-----3--3----------5-5------5-----5------5----5-----5-5----5-5---|
E|----------------3--3-----3--3---3-3----5-5----5---3-------3------3-|

Toda vez que eu sinto o paraíso ...
G|---------------------------------------------------------------------|
D|--------------5--x-----5--x-----5-------5--5--------------5----------|
A|-5-5------3-3------5-5------5-5-----5-5------3-3------5-5--------2-3-|
E|-----3--3----------------------------------------3--3--------3-5-----|

Eu penso em você meu probre ...
G|--------------------------------------------------------------|
D|-------------------------------------------5------5-----------|
A|-----3----3------5-5----5---5-------5----5----5-5---------2-3-|
E|-3-3----3---3--3-----3----3-----5-5----5--------------3-5-----|

[Refrão]

Eu penso em você meu probre ...
G|---------------------------------|--------------------------------------------------|
D|------------5------5-----5-------|------------5----5-----------5-------5--------5---|
A|---3-5----5----5-5-----5---3-----|---3-5----5----5---7------5------5-5----5-5-7-----|
E|-3------5------------------------|-3------5--------------5------------------------3-|

Vai pro seu trabalho ...
  G          C                  G                    C              G   
G|-------------------------------------------------------------------------------|
D|-------------------------------------5---------------------5--x-----5----------|
A|------5-5------3-3------5-5----5-5-7----------5-5------3-3------5-5--------2-3-|
E|-3--3-----3--3-----3--x-----3------------3--3-----3--3-----------------3-5-----|

Quando quer chorar ...
   C                G                     D        D7         G
G|-------------------------------------------------------------------|
D|---5-5------5-5----------------------------------------------------|
A|-3-----3--3----------5-5------5-----5------5----5-----5-5----5-5---|
E|----------------3--3-----3--3---3-3----5-5----5---3-------3------3-|

Toda vez que eu sinto o paraíso ...
G|---------------------------------------------------------------------|
D|--------------5--x-----5--x-----5-------5--5--------------5----------|
A|-5-5------3-3------5-5------5-5-----5-5------3-3------5-5--------2-3-|
E|-----3--3----------------------------------------3--3--------3-5-----|

Eu penso em você meu probre ...
G|--------------------------------------------------------------|
D|-------------------------------------------5------5-----------|
A|-----3----3------5-5----5---5-------5----5----5-5---------2-3-|
E|-3-3----3---3--3-----3----3-----5-5----5--------------3-5-----|

[Refrão]

Eu penso em você meu probre ...
G|---------------------------------|--------------------------------------------------|
D|------------5------5-----5-------|------------5----5-----------5-------5--------5---|
A|---3-5----5----5-5-----5---3-----|---3-5----5----5---7------5------5-5----5-5-7-----|
E|-3------5------------------------|-3------5--------------5------------------------3-|
00:00 / 00:00
Outros vídeos desta música
Repetir
Outros vídeos desta música
Composição de Paulo Coelho / Raul Seixas
Colaboração e revisão:
  • Jbonaldo
  • alexsandro silva
25.676 exibições

0 comentários

Ver todos os comentários

Entre para oCifra Club PRO

Tenha acesso a benefícios exclusivos no App e no Site

  • Chega de anúncios

  • Prioridade de compra em lançamentos

  • Mais recursos no app do Afinador

  • Atendimento Prioritário

  • Descontos nos produtos Cifra Club

  • Ajude a produzir mais conteúdo

00:00 / 00:00

Cifra Club Pro

Aproveite o Cifra Club com benefícios exclusivos e sem anúncios
Cifra Club Pro
Aproveite o Cifra Club com benefícios exclusivos e sem anúncios
OK