Cifra Club

Não Pare Na Pista

Raul Seixas

Cifra: Principal
exibições 95.655
Tom: C
 Intro: C7

E|------6--6-6--6--6--6-6-----------------|
B|------5--5-5--5--5--5-5-----------------|
G|-4/5--5--5-5--5--5--5-5-----------------| (4x)
D|-4/5------------------------------------|
A|----------------------------------------|
E|----------------------------------------|

E|--------------------10------------------|
B|-10-10h11~--11-10-8----8-8-8------------|
G|----------------------------------------|
D|----------------------------------------|
A|----------------------------------------|
E|----------------------------------------|

E|----------------------------------------|
B|-8-10-11-10-8---------------------------|
G|--------------10p8\7h8p7----------------|
D|----------------------------------------|
A|----------------------------------------|
E|----------------------------------------|

E|----------------------------------------|
B|--------8-7-----------------------------|
G|-7-8-10-----10-8------------------------|
D|------------------10-8h10-10\-----------|
A|----------------------------------------|
E|----------------------------------------|

               C7
Não pare na pista
         Ab         G           C7
É muito cedo pra você se acostumar

Amor não desista
         Ab           G         C7
Se você para o carro pode te pegar

bi,bi,fon,fon,nê,nê
         Ab           G         C7
Se você para o carro pode te pegar

               C7
Não pare na pista
         Ab         G           C7
É muito cedo pra você se acostumar

Amor não desista
         Ab           G         C7
Se você para o carro pode te pegar

bi,bi,fon,fon,nê,nê
         Ab           G         C7
Se você para o carro pode te pegar

            G
Você me xingando
           C
De louco pirado
            G
E o mundo girando
            C
E a gente parado
             F
Meu bem me dê a mão
                Ab
Que eu vou te levar
               C
Sem carro sem medo
     G        C7
Do guarda multar
               F
Meu bem me dê a mão
                Ab
Que eu vou te levar
               C
Sem carro sem medo
    G        C
Pra outro lugar

                C7
Não pare na pista
         Ab         G           C7
É muito cedo pra você se acostumar

Amor não desista
         Ab           G         C7
Se você para o carro pode te pegar

bi,bi,fon,fon,nê,nê
         Ab           G         C7
Se você para o carro pode te pegar

mamãe,papai,irmão
           Ab        G          C7
Se você para o carro pode te pegar

Vovó, nené, lili
         Ab         G           C
Se voê para o carro pode te pegar
Acordes para:

    0 comentários

      mostrar mais comentários

      Conseguiu tocar?

      4tocaram0ainda não

      Grave um vídeo tocando Não Pare Na Pista e mande pra gente!

      00:00 / 00:00
      outros vídeos desta música
      repetirqualidadeautomática
      Outro vídeos desta música
        00:00 / 00:00
        automática
        OK