Cifra Club

O Segredo do Universo

Raul Seixas

Tab de baixo: Principal
Intro

   (A)                       (C)(D) (A)                       (D)(C)
G|---------------------------------------------------------------------|
D|---------------------------------------------------------------------|
A|----------------------------3--5-----------------------------5--3----|  (x2)
E|-5-5-5-5--5-5-5-5--5-5-5-5--------5-5-5-5--5-5-5-5--5-5-5-5----------|

Refrão

Dentro do mambo...

   (A)
G|-------------------------|
D|-------------------4h7---| 
A|-------4--4--7--7--------|  (x8)
E|-5--5--------------------|

Verso

Você que não se deixa...
   
   (A)                (F#m)            (G)                (E)
G|-----------------------------------------------------------------------------------
D|-----------------------------------------------------------------------------------
A|--------------------------------------------------------7-7-7-7--7-7-7-7-----------
E|-5-5-5-5--5-5-5-5---2-2-2-2--2-2-2-2--3-3-3-3--3-3-3-3-----------------------------

   (A)                (F#m)            (G)                (D)                        (7)
G|-----------------------------------------------------------------------------------------|
D|-----------------------------------------------------------------------------------------|
A|--------------------------------------------------------5-5-5-5--5-5-5-5--5-5-5-5--/7\---|
E|-5-5-5-5--5-5-5-5---2-2-2-2--2-2-2-2--3-3-3-3--3-3-3-3-----------------------------------|

Trabalha cego para receber...

    (B)                           (F#m)              (E)
G|-----------------------------|---------------------------------------|
D|-----------------------------|---------------------------------------|
A|--2-2-2-2--2-2-2--0h2--(x3)--|--/9-9-9-9--9-9-9-9--7-7-7-7--7-7-7-7--|
E|-----------------------------|---------------------------------------|

Estas partes se repetem, e no último refrão tem este riff:

   (B)
G|-------------------------|
D|-------------------6h9---| 
A|-------6--6--9--9--------|  (x8)
E|-7--7--------------------|

A Base do solo é igual a este riff em (B), e em algumas frases tem a seguinte variação:

   (B)
G|----------------------------|
D|----------------------6h9---| 
A|-------6--6--9-9-9-9--------| 
E|-7--7-----------------------|

basicamente, ele dobra a nota A-9, tocando 4 no tempo de 2. Ouvindo dá pra perceber como faz.
00:00 / 00:00
Outros vídeos desta música
Repetir
Outros vídeos desta música
Composição de OSCAR RASMUSSEN / Raul Seixas
Colaboração e revisão:
  • Icaro Durden
1.048 exibições

0 comentários

Ver todos os comentários

Entre para oCifra Club PRO

Tenha acesso a benefícios exclusivos no App e no Site

  • Chega de anúncios

  • Prioridade de compra em lançamentos

  • Mais recursos no app do Afinador

  • Atendimento Prioritário

  • Descontos nos produtos Cifra Club

  • Ajude a produzir mais conteúdo

00:00 / 00:00

Cifra Club Pro

Aproveite o Cifra Club com benefícios exclusivos e sem anúncios
Cifra Club Pro
Aproveite o Cifra Club com benefícios exclusivos e sem anúncios
OK