Notificações Amigos pendentes

      Raul Seixas

      S.O.S

      4.988 exibições
      (baixo entra junto com a guitarra)
      (as partes em que há solos o baixo permanece)
      
      (intro)
          G        A        C        G    D
      G |--------------------------------------|
      D |--------------------------------------|
      A |-------------------3-3-3-33------5555-|
      E |-3-3-3-33-5-5-5-55----------3-3-------|
      
      (versos)
          G        A        C        D
      G |----------------------------------------|
      D |----------------------------------------|
      A |-------------------3-3-3-33-5-5-5-55----|
      E |-3—3-3-33-5-5-5-55----------------------|
      
      (refrão)
           C   D   Bm  Em  C   D   G  G7
      G |-----------------------------------|
      D |-----------------------------------|
      A |--3-3-5-5-----7-7-3-3-5-5----------|
      E |----------7-7-------------3-3-3-3--|
      
      (pré-solo)
         Em  C   D   G
      G |----------------|
      D |----------------|
      A |7-7-3-3-5-5-----|
      E |------------3-3-|
      
      (final)
          G        A        C        G   
      G |---------------------------------------|
      D |---------------------------------------|
      A |-------------------3-3-3-33------------|
      E |-3-3-3-33-5-5-5-55----------3-3-3-3-33-|
      
        Composição: Raul SeixasColaboração e revisão:
        • lukas_moura

        Comentários 0

        140 .
        140 cancelar

        conseguiu tocar?

        covers

        Grave um vídeo tocando S.O.S e mande pra gente!

        Ex.: http://www.youtube.com/watch?v=0IvSvIwGdwk
        ver covers de outras músicas »
        0:00 / 0:00

        Capítulos

          1 versão de baixo exibições contribuição e correção
          play/pausefechar subir/descer velocidade
          6ª corda E5ª corda A4ª corda D3ª corda G2ª corda B1ª corda E
            acordes
            publicidade
            fechar
            ok