Notificações Amigos pendentes

      Reação Em Cadeia

      Infierno

      117.670 exibições
      Tom: B
      Intro:
      E |-----
      B |-11--
      G |-10-- ( 8x) (guitarra solo)
      D |-8---
      A |-----
      E |-----
      Base: Bb, F#m, C#m, G#m (guitarra base)
      
      (riff: 01 guitarra solo)
      
      E |-----------------------------------------------------------------------|
      B |-----------------------------------------------------------------------|
      G |-----------------------------------------------------------------------|
      D |-----------------------------------------------------------------------|
      A |1-4-3-4-3-----4-3-4-3---3/4-4-3-4-3-0---4-3-4-3------------------------|
      E |----------0-2---------0---------------4--------------------------------|
      
      
      |------------------------------Repete-4-vezes----------------------------|
      
      
      Riff 02:
      
      E |--------------------------------|
      B |---6---7-6-------6---7-6-9-6----|
      G |-6---6-----6---6---6------------|
      D |--------------------------------|
      A |--------------------------------|
      E |--------------------------------|
      
      
      Fico perdido quando
      Você fecha a porta
      Insatisfeito por não ter
      Uma resposta
      Acostumado a viver
      só com você
      compenetrado em fazer
      e acontecer
      
      Base:Base: Bb, F#m, C#m, G#m (palm mute)
      Riff 03:
      
      E |-----------------------------------------------------------------------|
      B |-----------------------------------------------------------------------|
      G |-----------------------------------------------------------------------|
      D |-3-------3-----------------------6-------6-----------------------------|
      A |---1-1-1--1-1-1---4-------4--------4-4-4---4-4-4--6-------6------------|
      E |--------------------2-2-2--2-2-2--------------------4-4-4---4-4-4------|
      
      Talvez aquilo
      Que me disse faz sentido
      Que o meu corpo já
      Não é mais seu abrigo
      Não tenho culpa
      de você não me querer
      é uma desculpa
      pra tentar me convencer
      D#m     (guitarra solo bate a introdução 1x)
      Que acabou,
          D#m     (guitarra solo bate a introdução 1x)
      Que acabou pra nós dois
      
      
       Refrão:Bbm,F#m,C#m,G#m
      E |----------------------------------------------------|
      B |----------------------------------------------------|
      G |-5/6-6-6-6--6/8/6-----6---5/6-6-6-6--6/8/5-3-5-3----|
      D |----------------------------------------------------|
      A |-3/4-4-4-4--4/6/4-----4---3/4-4-4-4--4/6/3-1-3-1----|
      E |----------------------------------------------------|
      
      Encontrei o inferno
      Ao descobrir o céu
      Paguei o seu preço      (2x)
      O seu destino é meu
      
      
      E |-----------------------------------------------------------------------|
      B |-----------------------------------------------------------------------|
      G |-----------------------------------------------------------------------|
      D |-----------------------------------------------------------------------|
      A |1-4-3-4-3-----4-3-4-3---3/4-4-3-4-3-0---4-3-4-3------------------------|
      E |----------0-2---------0---------------4--------------------------------|
      
      
      riff:02
      o meu receio é
      sair do teu caminho
      de ser jogado e
      depois viver sozinho
      meu egoísmo naum me faz
      te merecer
      Nos parte em dois
      E quando acaba
      Faz sofrer
      D#m    (guitarra solo bate a introdução 1x)
       Demais...
      D#m     (guitarra solo bate a introdução 1x)
      Faz sofrer demais...
      
      Refrão
      
      
       Solo:Bbm,F#m,C#m,G#m (4x)
      E |-----------------------------------------------------|
      B |-----------------------------------------------------|
      G |-5/6--6-6-6/5/6--6-6-6--5/6-6-6-6/8----5/3/5/3-------|
      D |-----------------------------------------------------|
      A |-3/4--4-4-4/3/4--4-4-4--3/4-4-4-4/6----3/1/3/1-------|
      E |-----------------------------------------------------|
      
      
      Guitarra base: Bbm,F#m,C#m,G#m (palm mute)
      Guitarra solo: riff 01 (palm mute)
      
      Fico perdido quando
      Você fecha a porta
      Insatisfeito por não ter
      Uma resposta
      Acostumado a viver
      só com você
      compenetrado em fazer
      e acontecer
      
      Guitarra base: Bbm,F#m,C#m,G#m (uma batida na nota)
      Guitarra solo: riff: 03
      Talvez aquilo
      
      Que me disse faz sentido
      Que o meu corpo já
      Não é mais seu abrigo
      Não tenho culpa
      de você não me querer
      é uma desculpa
      pra tentar me convencer
      D#m     (guitarra solo bate a introdução 1x)
      Que acabou,
          D#m     (guitarra solo bate a introdução 1x)
      Que acabou pra nós dois
      
      Refrão: 4x

      Comentários 0

      140 .
      140 cancelar

      conseguiu tocar?

      covers

      Grave um vídeo tocando Infierno e mande pra gente!

      Ex.: http://www.youtube.com/watch?v=0IvSvIwGdwk
      ver covers de outras músicas »
      0:00 / 0:00

      Capítulos

        4 versões de violão dificuldade exibições contribuição e correção
        4 versões de guitarra dificuldade exibições contribuição e correção
        4 versões de cavaco dificuldade exibições contribuição e correção
        4 versões de teclado dificuldade exibições contribuição e correção
        1 versão de baixo exibições contribuição e correção
        1 versão de bateria exibições contribuição e correção
        3 versões de Guitar Proformatodownloadscontribuição
        play/pausefechar subir/descer velocidade
        6ª corda E5ª corda A4ª corda D3ª corda G2ª corda B1ª corda E
          acordes
          publicidade
          fechar
          ok