Cifra Club

Aprenda

Safe And Sound

Rebelution

Tab de baixo: Principal
Intro
E-----------------------------
A-----------------------------  2x
D-------5--------3----2-------
G---5-------3-----------------

Refrão
E-----------------------------------------------------------------------------------------------
A-----------------------------------------------------------------------------------------------
D-------------------7--------5------------------3b5---3---2-------------------------------------
G---5-5-5----7b8--------8-------------3-3-3-3---------------------------------------------------

A música toda fica nisso e no refrão muda pra essa acima
E-----------------------------------------------------------
A-----------------------------------------------------------
D---------------7---------5---------------------------------
G---5-----7b8-------8----------7b8----7-----5---------------
Composição de Rebelution
Colaboração e revisão:
  • Pietro Ippolito
933 exibições

0 comentários

Mostrar mais comentários

Conseguiu tocar?

0 Tocaram 0 Ainda não

Grave um vídeo tocando Safe And Sound e mande pra gente!

00:00 / 00:00
outros vídeos desta música
repetir qualidade Automático
Outros vídeos desta música
00:00 / 00:00
Automático

Cifra Club Pro

Aproveite o Cifra Club com benefícios exclusivos e sem anúncios
7 dias grátis
Cifra Club Pro
Aproveite o Cifra Club com benefícios exclusivos e sem anúncios
7 dias grátis
OK