Cifra Club

Aeroplane

Red Hot Chili Peppers

Tab de baixo: Principal
exibições 39.809
[Introdução]


Parte 1
G|-----17--17/19\17-----------------------------|
D|------------------17--------17----------------|
A|----------------------15h17-----15------------|
E|-----------------------------------15\-8------|

G|------------------17----21----19----17-17-----|
D|------------17h19----17----17----17-------17\-|
A|------15h17p15--------------------------------|
E|-8/15-----------------------------------------|

G|----------------------------------------------|
D|----------------------------------------------|
A|-15h17p15-15h17p15-15h17p15-15h17p15-15h17p15-|
E|----------------------------------------------|


[Refrão]

I like pleasure spiked with pain...

Parte 1 de 2
G|----------------------------------------------|
D|----------------------------------------------|
A|-3/10~~-0-1-----------2/10~~-0-1-3-5~~~6~~8~~-|
E|------------2/8~~-0-1-------------------------|

G|----------------------------------------------|
D|----------------------------------------------|
A|-6/10~~-0-1--------------0-1-3/5-3~~----------|
E|-------------2/8~~-0-1-3-------------0-1------|

Parte 2 de 2
G|----------------------------------------------|
D|----------------0-1-3/5-3---------------------|
A|---0-1-3-3/5--3-----------5-3----0-1-3-3/5-3--|
E|-3-----------------------------3--------------|

G|----------------------------------------------|
D|-0-1-0-3-3---5--------------------------------|
A|-----------5----------------------------------|
E|----------------------------------------------|


[Primeira parte]

Looking in my own eyes hell-o...

Parte 1 de 4

   T  P P T T  T  P P T T T P P T T P P  P
G|----------------7-7-------5-5-----------------|
D|----5-5---------------------------3-3--5------|
A|-------------5------4-3-x-----5-6-------------|
E|-3------5-6-----------------------------------|

   T  P P T T  T  P P T T T P P T   P P    P
G|----------------7-7-------5-x-------5h7--x----|
D|----5-5---------------------------5-----------|
A|-------------5------4-3-x-----5h6-------------|
E|-3------5-6-----------------------------------|

Parte 2 de 4
 
   T  P P T T  P  P P T T P P P T   P P P T
G|----------------7-7-------5-x-----------------|
D|----5-5---------------------------5-3-x-------|
A|-------------5------4-3-x-----5h6-------3h5---|
E|-3------5-6-----------------------------------|

   T  P P T T  T  P P T T T P P T  T  P T  P
G|----------------7-7-------5-x-------8----7----|
D|----5-5---------------------------------------|
A|-------------5------4-3-x-----5--6----5-------|
E|-3------5-6-----------------------------------|

Parte 3 de 4

   T  P P T T  T  P P T T T P P T T P P  P
G|----------------7-7-------5-5-----------------|
D|----5-5---------------------------3-3--5------|
A|-------------5------4-3-x-----5-6-------------|
E|-3------5-6-----------------------------------|

   T  P P T T  T  P P T T T P P  T   P  P P
G|----------------7-7-------5-x-----------------|
D|----5-5---------------------------------------|
A|-------------5------4-3-x----------1-3-1h3----|
E|-3------5-6--------------------1h3------------|

Parte 4 de 4

   T  P P T T  P P  T T T P P T T P P P
G|-------------3-3--------5-5-------------------|
D|----5-5-------------------------3-3-5---------|
A|------------------2-3-x-----5-6---------------|
E|-3------5-6-----------------------------------|

   T  P P T T  T  P P T T T P P T T  
G|----------------7-7-------5-5-----------------|
D|----5-5---------------------------------------|
A|-------------5------4-3-x-----5-6--8----------|
E|-3------5-6-----------------------------------|

 
[Refrão 2]

I like pleasure spiked with pain...

Parte 1 de 2
G|----------------------------------------------|
D|----------------------------------------------|
A|-3/10~~-0-1-----------2/10~~-0-1-3-3-4~4-5~---|
E|------------2/8~~-0-1-------------------------|

G|----------------------------------------------|
D|-------------------------------5-7-8-10h12-10-|
A|-5-5/17~~--5/10~~-0-1--3~~--------------------|
E|---------------------------0-1----------------|

G|----------------------------------------------|
D|-10-------------------------------------------|
A|----------------------------------------------|
E|----0-1---------------------------------------|

Parte 2 de 2
G|----------------------------------3-3/5-3-5-6-|
D|----------------0-1-3h5-3---5-7-8-------------|
A|---0-1-3-3/5--3-----------5-------------------|
E|-3--------------------------------------------|

G|-12-12-12-12--12-12-12-12---------------------|
D|----------------------------------------------|
A|----------------------------------------------|
E|----------------------------------------------|


[Segunda Parte]

Sitting in my kitchen hey girl...

Parte 1 de 4

   T  P P T T  T  P P T T T P P T T P P  P
G|----------------7-7-------5-5-----------------|
D|----5-5---------------------------3-3--5------|
A|-------------5------4-3-x-----5-6-------------|
E|-3------5-6-----------------------------------|

   T  P P T T  T  P P T T T P P T   P P T  
G|----------------7-7-------5-x-----------------|
D|----5-5---------------------------------------|
A|-------------5------4-3-x---------1-1---------|
E|-3------5-6-------------------1h3-----1-------|

Parte 2 de 4
 
   T  P P T T  P  P P T T T P P T T P  T  P P
G|----------------7-7-------5-x-----------x-x---|
D|----5-5---------------------------5-----------|
A|-------------5------4-3-x-----5-6----x--------|
E|-3------5-6-----------------------------------|

   T  P P T T  T  P P T T T P P T  T  T P  P  P
G|----------------7-7-------5-x---------10-10---|
D|----5-5------------------------3/8--X-------8\|
A|-------------5------4-3-x---------------------|
E|-3------5-6-----------------------------------|

Parte 3 de 4

   T  P P T T  T  P P T T T P P T T P P  P
G|----------------7-7-------5-5-----------------|
D|----5-5---------------------------3-3--5------|
A|-------------5------4-3-x-----5-6-------------|
E|-3------5-6-----------------------------------|

   T  P P T T  T  P P T T T P P  T   P   P
G|----------------7-7-------5-x-----------------|
D|----5-5----------------------------1h3--------|
A|-------------5------4-3-x------1h3-----1h3----|
E|-3------5-6-----------------------------------|

Parte 4 de 4

   T  P P T T  P P  T T T P P T   P P P P
G|-------------3-3--------5-5-------5-6-7-------|
D|----5-5-------------------------5-------------|
A|------------------2-3-x-----5h6---------------|
E|-3------5-6-----------------------------------|

   T  P P T T  P P  T T T P P T T T       
G|-------------3-3--------5-5-------------------|
D|----5-5---------------------------------------|
A|------------------2-3-x-----5-6-8-------------|
E|-3------5-6-----------------------------------|


[Refrão 3]

I like pleasure spiked with pain...

Parte 1 de 2
G|----------------------------------------------|
D|----------------------------------------------|
A|-3/10~~-0-1-----------2/10~~-0-1-3/10---------|
E|------------2/8~~-0-1-------------------------|

G|----------------------------------------------|
D|----10----12/13-12-10-------------------------|
A|-10----10-------------------------------------|
E|----------------------------------------------|

Parte 2 de 2
G|----------------------------------------------|
D|----------------------------------------------|
A|-8/10~~-0-1—3~~----------0-3/5-3~~------------|
E|------------------0-1--3-----------0-1--------|


[Terceira Parte]

Just one note...

Parte 1 de 2
G|----------------------------------------------|
D|----------------------------------------------|
A|-6-6--8-8--10--10--6-6--8-8--10--10-----------|
E|----------------------------------------------|

G|---------10-------10----12------12-10---------|
D|---------------12----12------12-------12------|
A|-6-6--8-----10--------------------------------|
E|----------------------------------------------|

Parte 2 de 2

G|------8----10----------10-10----12-10---------|
D|-------------------12--------12-------12------|
A|-6-6----8------10-----------------------------|
E|----------------------------------------------|

G|-----------------10----12-12--15-14-----------|
D|--------10----12----12--------------12--------|
A|-6-6--8----10---------------------------------|
E|----------------------------------------------|

              P  P  P
G|----------------------------------------------|
D|------------5--5--5---------------------------|
A|-6-6--8-8-------------------------------------|
E|----------------------------------------------|


[Refrão 4]

I like pleasure spiked with pain...

Parte 1 de 2
G|----------------------------------------------|
D|----------------------------------------------|
A|-3/10~~-0-1-3~~-----2/10~~-0-1-3------5/12----|
E|----------------0-1--------------3/10---------|

G|----------------------------------------------|
D|----------------------------------------------|
A|-7/17-----------------------------------------|
E|----------------------------------------------|

Parte 2 de 2
G|----------------------------------------------|
D|----------------------------------------------|
A|-6/10~~-0-1—3~~----------0-3/5-3~~------------|
E|------------------0-1--3-----------0-1--------|


[Quarta parte]

It's my aeroplane...

Parte 1 de 7
G|------x-3-4-----------------------------------|
D|----5-------3-x-5-3---------------------------|
A|--------------------5-3-0-1-0-3-1-------------|
E|-3--------------------------------3-1-1-2-----|

G|----------------------------------------------|
D|----------------------------------------------|
A|------------------3-3--1-1--x-3-x-4-x-5-x-----|
E|-3-3--1-1--1/13\------------------------------|

Parte 2 de 7
G|-------3--------------------------0-3-4-------|
D|---5-3------------------------x-5-------5-0-3-|
A|---------4-3-1--3-1---------------------------|
E|-3------------------3-1-1-2-3-----------------|

G|----------5-----------------------------------|
D|----------------------------------------------|
A|-5-4-0-3--------------------------------------|
E|-------------3/12\----------------------------|

Parte 3 de 7
G|----------------------------------------------|
D|----------------------------------------------|
A|-----0-0--1-1-2-2-3-3-5-5-6-6-8-8-------------|
E|-3-3------------------------------------------|

G|------------------------7-7-8-8-10-10---------|
D|--5-5-7-7-8-8-9-9-10-10-----------------------|
A|----------------------------------------------|
E|----------------------------------------------|

Parte 4 de 7
G|-10h12-12-12--10--10-10-8--8-8-7-7------------|
D|----------------------------------------------|
A|----------------------------------------------|
E|----------------------------------------------|

G|----------------------------------------------|
D|-10-10-8-8-7-7-6-6-5-5------------------------|
A|-----------------------8-8-6-6-5-5-3-3--------|
E|---------------------------------------6-6----|

G|----------------------------------------------|
D|----------------------------------------------|
A|----------------------------------------------|
E|-5-5-4-4--------------------------------------|

Parte 5 de 7
G|----------------------------------------------|
D|----------------------------------------------|
A|-----0-0--1-1-2-2-3-3-5-5-6-6-8-8-------------|
E|-3-3------------------------------------------|

G|------------------------7-7-8-8-10-10---------|
D|--5-5-7-7-8-8-9-9-10-10-----------------------|
A|----------------------------------------------|
E|----------------------------------------------|

Parte 6 de 7
G|-10h12-12-10--10-10---------------------------|
D|--------------------13-13-13--12--12-12-13-12-|
A|----------------------------------------------|
E|----------------------------------------------|

G|----------------------------------------------|
D|-10-12-10--8-10-8-7--8-7-5--------------------|
A|----------------------------------------------|
E|----------------------------------------------|

Parte 7 de 7
G|----------------------------------------------|
D|-5-5------------------------------------------|
A|-----8-8-6-6-5-5-3-3----------------3/12------|
E|----------------------6-6-5-5-4-4-3-----------|
Composição: Anthony Kiedis / Chad Smith / Dave Navarro / Flea Colaboração e revisão:
  • Reginaldo Costa
  • Gabriel Leite

0 comentários

mostrar mais comentários

Conseguiu tocar?

1 tocaram 0 ainda não

Grave um vídeo tocando Aeroplane e mande pra gente!

00:00 / 00:00
outros vídeos desta música
repetir qualidade Automático
Outro vídeos desta música
00:00 / 00:00
Automático
Capítulos
  • Tocando a música
  • Apresentação / Equipamentos
  • TAB - Introdução
  • TAB - Refrão - Parte 1 de 2
  • TAB - Refrão - Parte 2 de 2
  • TAB - Primeira parte - Parte 1 de 4
  • TAB - Primeira parte - Parte 2 de 4
  • TAB - Primeira parte - Parte 3 de 4
  • TAB - Primeira parte - Parte 4 de 4
  • TAB - Refrão 2 - Parte 1 de 2
  • TAB - Refrão 2 - Parte 2 de 2
  • TAB - Segunda parte - Parte 1 de 4
  • TAB - Segunda parte - Parte 2 de 4
  • TAB - Segunda parte - Parte 3 de 4
  • TAB - Segunda parte - Parte 4 de 4
  • TAB - Refrão 3 - Parte 1 de 2
  • TAB - Refrão 3 - Parte 2 de 2
  • TAB - Terceira parte - Parte 1 de 2
  • TAB - Terceira parte - Parte 2 de 2
  • TAB - Refrão 4 - Parte 1 de 2
  • TAB - Refrão 4 - Parte 2 de 2
  • TAB - Quarta parte - Parte 1 de 7
  • TAB - Quarta parte - Parte 2 de 7
  • TAB - Quarta parte - Parte 3 de 7
  • TAB - Quarta parte - Parte 4 de 7
  • TAB - Quarta parte - Parte 5 de 7
  • TAB - Quarta parte - Parte 6 de 7
  • TAB - Quarta parte - Parte 7 de 7
  • Dicas: escala menor de G duas oitavas
  • Encerramento
OK