Cifra Club

Aeroplane

Red Hot Chili Peppers

Tab de baixo: Principal
exibições 38.462
Intro:

g-|----17------17/19-|-\17----------------|------------------|-------------|
d-|------------------|----17--------------|-17---------------|-------------|
a-|-/15--------------|------15------15h17-|--------15--------|-------------|
e-|------------------|--------------------|-------------15\--|-8------8/15-|

g-|---------------------|-17-------21--19---17-|-17----------|-------------|
d-|---------------17/19-|-------17---17---17---|----------17-|-------------|
a-|-15h17p15------------|----------------------|-------------|-15h17p15----|
e-|---------------------|----------------------|-------------|-------------|

Refrão:

g-|-------------|--------------|-------------|-----------------------------|
d-|-------------|--------------|-------------|-----------------------------|
a-|-------------|--------------|-------------|-----------------------------|
e-|-15\---5-6---|-8~~---0h1/10-|-15\---5-6---|-8--8-8-8/10--10-10/11-11/13-|

g-|-------------|----------------|----------------|-----------------|
d-|-------------|----------------|----------------|-----------2--3--|
a-|-------------|----------------|-----0---1--/5--|-3---3-3-3-------|
e-|-15\---5-6---|-8~~---0-1--1h2-|-3--------------|-----------------|

g-|-----------------|----------------------|---------------------|
d-|-----------------|----------3/5---3-----|-------------------5-|
a-|----0--1--3--3/5-|-3--5--6----------5-3-|-3--5-6--6h8p6-6-8---|
e-|-3---------------|----------------------|---------------------|

Verso:
  
g-|---------------7--7--|-----5--5-------------|---------------7--7---|
d-|-----5-5-------------|---------------3--3-5-|-----5-5--------------|
a-|-------------5--5--4-|-3-x--x---5-6---------|--------------5--5--4-|
e-|-3--3-3--5-6---------|--------------x-x--x--|-3--x-x--5--6---------|
    t  t tp t t t pt pt   t t pt p t t tpt ptp   t  tptp t  t tp tp t

g-|----5--5----------------|----------------7--7---|
d-|---------------7--5-----|-----5--5--------------|
a-|-3-3--3---5h7-------x-x-|---------------5--x--4-|
e-|--------------5--3------|-3--3--3--5--6---------|
    t tp tp cont. simile...

g-|------5--5------------|----------------7--7---|-----5--x-----8--7-|
d-|---------------5--7---|-----5-5---------------|-------------------|
a-|-3--x--x--5h7-x--x----|--------------5--5--4--|-3--3--x--5h6--5---|
e-|--------------------5-|-3--3-3--5--6----------|-------------------|

g-|---------------7--7--|----5-5---------------|---------------7--7---|
d-|-----5-5-------------|---------------3--3-5-|-----5-5--------------|
a-|-------------5--5--4-|-3-x-x---5-6----------|--------------5--5--4-|
e-|-3--x-x--5-6---------|--------------x-x--x--|-3--x-x--5--6---------|

g-|----5----x----------------|---------------3-3---|-----5-x--------|
d-|--------------------------|-----5-5-------------|----------5-3-5-|
a-|-3---x-3-------1h3-x-1h3--|--------------1-1--2-|-3--3-x---------|
e-|----------1h3-x---------x-|-3--x-3--5--6--------|---------x-x-x--|

g-|------5--5-----------|
d-|---------------------|
a-|-3--x--x---5--6/7--8-|
e-|---------------------|
Improvise on the 2nd verse figure.

Refrão variação:

g-|-------------|--------------|-------------|-----------------------------|
d-|-------------|--------------|-------------|-----------------------------|
a-|-------------|--------------|-------------|-3--3-3-3/5-5-5/6-6/19\17~~--|
e-|-15\---5-6---|-8~~---0-1/8--|-15\---5-6---|-----------------------------|

g-|-------------|----------------|-------------------|-----------------------|
d-|-------------|----------------|-------------------|-----------------------|
a-|-------------|----------------|-10--12--13--13/17-|-15-15-15--15----------|
e-|-15\---5-6---|-8~~~~------1h2-|-------------------|---------------0--1--2-|

g-|-------------------|-----------------------|---------------------|
d-|-------------------|-----------3/5---3---3-|-5--7--8---10--10h12-|
a-|------------3--3/5-|-3--3-5--6---------5---|---------------------|
e-|-3-3-3--5-6--------|-----------------------|---------------------|

g-|----------------10h12-12-12-12\-|
d-|-10--12---13-14-----------------|
a-|--------------------------------|
e-|--------------------------------|

Interlúdio:

g-|---------------|-----------------|----------------|----------------|
d-|---------------|-----------------|----------------|----------------|
a-|---------8--8--|-10--10----------|----------8--8--|-10--10---------|
e-|-11--11--------|--------------11-|-11--11---------|-------------11-|

g-|--------------10--|--------10--12-12-10---|
d-|------------------|------12--12--------12-|
a-|-----------8------|-10--------------------|
e-|-11--11-----------|-----------------------|
                                                        
g-|--------------10-|--------10--12-x-10---|-----------------|--------------|
d-|-----13----------|------12--12-------12-|-----------------|--------------|
a-|-----------8-----|--10------------------|-----------8--8--|--10--10--10--|
e-|-11--------------|----------------------|-11--11----------|--------------|

Solo Baixo:

g-|-------x-3-4----------|-------------------------|------------------------|
d-|-----5-------3-3--5-3-|-------------------------|------------------------|
a-|-----------------5----|-3--x-1-1-3-1------------|------------------------|
e-|-3--------------------|--------------3--1-1-1-2-|-3--3-3-3-1--1---3/15\3-|

g-|---------------------------|----------3----|-----------------------|
d-|---------------------------|----5--3-------|-----------------------|
a-|-3--3-3-3-1-1-----x3-x4-x5-|-------------4-|-3--1---3-1------------|
e-|---------------------------|-3-------------|-----------3--1-1-1--2-|

g-|-----------3-4------------|---5----------|
d-|-------5-5------5-3-------|--------------|
a-|-----5-----------5--x-4---|-3------------|
e-|-3----------------------x-|-------3/19\3-|

Final:

g-|------------------------|------------------------|--------------------------|
d-|------------------------|------------------------|---------7--7--8--8--9--9-|
a-|-------0--0--1--1--2--2-|-3--3--5--5--6--6--8--8-|-10--10-------------------|
e-|-3--3-------------------|------------------------|--------------------------|

g-|-------------------------10--10-|-10h12--12--10--10-----------------|
d-|-10--10-10-12--12-13--13--------|--------------------13--13--12--12-|
a-|--------------------------------|-----------------------------------|
e-|--------------------------------|-----------------------------------|

g-|--------------------------------|---------------------------|------------------------|
d-|-10--10-------------------------|---------------------------|------------------------|
a-|---------13--13--12--12--11--11-|-10--10--8--8--6--6--5--5--|-3--3-------------------|
e-|--------------------------------|---------------------------|-------6--6--5--5--4--4-|

g-|------------------------|--------------------------|------------------------------|
d-|------------------------|--------------------------|-----------7--7--8--8--9--9-9-|
a-|-------0--0--1--1--2--2-|-3--3-3-5--5-5-6--6--8--8-|-10--10-10--------------------|
e-|-3--3-3-----------------|--------------------------|------------------------------|

g-|-------------------------10--10-|-10h12--12--10--10-----------------|
d-|-10--10-10-12--12-13--13--------|--------------------13--13--12--12-|
a-|--------------------------------|-----------------------------------|
e-|--------------------------------|-----------------------------------|

g-|----------------------------------------|-----------------------------|
d-|-13-12--10--12-10----10-----------------|-----------------------------|
a-|------------------12---13-12--13-12--10-|-10-10--10--8--8--6--6--5--5-|
e-|----------------------------------------|-----------------------------|

g-|------------------------|-----------------|---------|--------|
d-|------------------------|-----------------|---------|----17\-|
a-|-3--3-------------------|-----------------|---------|--------|
e-|-------6--6--5--5--4--4-|-3~~~~--3/15~~~~-|-(15)----|--------|
Composição: Anthony Kiedis / Chad Smith / Dave Navarro / FleaColaboração e revisão:
  • Gabriel Leite

0 comentários

    mostrar mais comentários

    Conseguiu tocar?

    1tocaram0ainda não

    Grave um vídeo tocando Aeroplane e mande pra gente!

    00:00 / 00:00
    outros vídeos desta música
    repetirqualidadeautomática
    Outro vídeos desta música
      00:00 / 00:00
      automática
      OK