Cifra Club

After Hours

Red Hot Chili Peppers

Cifra: Principal
exibições 15.317
Tom: C
----------x----------------x-----------------x-----------------x-------------- 
----------1----------------3-----------------3-----------------1-------------- 
----------3----------------5-----------------5-----------------3-------------- 
----------2----------------4-----------------4-----------------2-------------- 
----------3----------------6-----------------5-----------------4-------------- 
----------x----------------x-----------------x-----------------x-------------- 
 If you close          the door        the night could last forever            
 
----------x------x-------------------x-------------x-------------------------- 
----------1------3-------------------3-------------1-------------------------- 
----------3------5-------------------5-------------3-------------------------- 
----------2------4-------------------4-------------2-------------------------- 
----------3------6-------------------5-------------4-------------------------- 
----------x------x-------------------x-------------x-------------------------- 
 let the sun   shine out        and say hello to never                         
 
------------x-------------------------------x--------------------------------- 
------------1-------------------------------1--------------------------------- 
------------3-------------------------------3--------------------------------- 
------------2-------------------------------1--------------------------------- 
------------3-------------------------------3--------------------------------- 
------------x-------------------------------x--------------------------------- 
 all the people are laughing  and theyre having such fun                       
 
--------3--------------------------------6------------------------------------ 
--------6--------------------------------9------------------------------------ 
--------5--------------------------------8------------------------------------ 
--------3--------------------------------6------------------------------------ 
--------4--------------------------------7------------------------------------ 
--------3--------------------------------6------------------------------------ 
 I    wish   it  could   happen  to   meeeee                                   
 
---------------x--------------------x----------------------------------------- 
---------------1--------------------3----------------------------------------- 
---------------3--------------------5----------------------------------------- 
---------------2--------------------4----------------------------------------- 
---------------3--------------------6----------------------------------------- 
---------------x--------------------x----------------------------------------- 
 But if you close             the door                                         
 
-----x-----------------x--------------x---------x----------------------------- 
-----3-----------------1--------------1---------3----------------------------- 
-----5-----------------3--------------3---------5-------x2-------------------- 
-----4-----------------2--------------2---------4----------------------------- 
-----5-----------------4--------------3---------6----------------------------- 
-----x-----------------x--------------x---------x----------------------------- 
 I never    have to   see the day   again                                      
 
-----x--------------x-------------x------------------------------------------- 
-----3--------------1-------------1------------------------------------------- 
-----5--------------3-------------3------------------------------------------- 
-----4--------------2-------------2------------------------------------------- 
-----5--------------4-------------3------------------------------------------- 
-----x--------------x-------------x------------------------------------------- 
 I never have to  see the day  again
Acordes para:
    Composição: Anthony,Flea,John e ChadColaboração e revisão:
    • Renan Neves

    0 comentários

      mostrar mais comentários

      Conseguiu tocar?

      2tocaram0ainda não

      Grave um vídeo tocando After Hours e mande pra gente!

      00:00 / 00:00
      outros vídeos desta música
      repetirqualidadeautomática
      Outro vídeos desta música
        00:00 / 00:00
        automática
        OK