Cifra Club

Apache Rose Peacock

Red Hot Chili Peppers

Tab de baixo: Principal
exibições 4.608
Great Red Hot song!
For saving spaces, I wrote only essential bars and its variation.
Enjoy your self...

SONG STRUCTURE:
INTRO	4 BARS
VER-1	8 BARS
CHR-1	8 BARS
MDA-1	8 BARS
CHR-2	8 BARS
MDB-1	8 BARS
VER-2	8 BARS
CHR-3 	8 BARS
MDA-2	8 BARS
CHR-4	8 BARS
MDB-2	8 BARS
MDA-3	8 BARS
CHR-5	8 BARS
ENDING	8 BARS


INTRO: 
      q s t t e s t t e s t t e   q s t t e s t t e s t t e   
G---|---------------------------|---------------------------|-
D---|---------------------------|---------------------------|-
A---|---------------------x---2-|---------------------------|-
E---|-0---x---0---x---3---------|-0---x---0---x---5---x---3-|-
                  2   2   1   1               3   3   1   1   
 
 
      q e e s t t s. t s e.   
G---|-----------------------|-
D---|-----------------------|-
A---|-----------------------|-
E---|-0---0---x---5----5-3--|-
              3   3    3 1    

 
VER-1: 
      q e s. t s s s s t t e.   
G---|-------------------------|-
D---|-------------------------|-
A---|-------------------------|-
E---|-0---0----5---5---5---3--|-
               3   3   3   1    
 
 
      q e e s t t s. t s s. s.   
G---|--------------------------|-
D---|--------------------------|-
A---|--------------------------|-
E---|-0---0---x---5----5-3-----|-
              3   3    3 1       
 

CHR-1: 
      q s t t e.  s e e e   q e e e e s t t s s   
G---|---------7\3---------|---------------------|-
D---|-----x-------------3-|---------------------|-
A---|-5-------------3-----|-0---0---3---0---3-4-|-
E---|---------------------|---------------------|-
      1   3   4     1   2           1       1 2   
 
 
      q s s e e   e e   e   
G---|-------------5-------|-
D---|---------5/7---7\5-3-|-
A---|-0---0-0-------------|-
E---|---------------------|-
              3   1 3   1   
 
 
      q e s s s s s t t s s s s   
G---|---------------------------|-
D---|-------------------3-------|-
A---|-0---0---3---3---3---0-3-4-|-
E---|---------------------------|-
              1   1   1 2   1 2   
 
 
      q e e e e s s  e   
G---|------------------|-
D---|------------------|-
A---|-0---0---5---0p---|-
E---|----------------3-|-
              3      1   
 
 
MDA-1 :
      s e. s e. s e s s t t s s    e s s s e. s s s s s s s s    
G---|----------------------------|-----------------------------|-
D---|-----------2---4---x---0-2h-|------------4---5---4---0-2h-|-
A---|-0----4---------------------|---0---4---------------------|-
E---|----------------------------|-----------------------------|-
           3    1   3         1          3    3   4   3     1    
 
 
      e s s s e. s s s s s e.   
G---|-------------------------|-
D---|------------4---5---4----|-
A---|---0---4-----------------|-
E---|-------------------------|-
            3    3   4   3      
 
 
CHR-2: 
      q e e s. t e s. t e   
G---|---------------------|-
D---|--------------3------|-
A---|-0---0----x-3----x-3-|-
E---|---------------------|-
               1 1 2  1 1   

 
      q s. t e s s s s s s s s    q s t t e.  s e e e   
G---|---------------------------|---------7\3---------|-
D---|----------7---5---3---2----|-----x-------------3-|-
A---|-0----0-0---0---0---0---5h-|-5-------------3-----|-
E---|---------------------------|---------------------|-
               3   1   1   1 \____/   3   4     1   2   
                              
 
      q s s s. t s s s s s s e   
G---|--------------------------|-
D---|------------------3-------|-
A---|-0---0-0----3-4-5---5-0-3-|-
E---|--------------------------|-
                 1 2 3 1 3   1   
 
 
      e e h.   
G---|--------|-
D---|--------|-
A---|-0------|-
E---|--------|-
               
 
 
MDB-1 
      s s s s q s s s s q   s s s s e. s s s s s q   
G---|---------------------|------------------------|-
D---|-2---2---------------|------------------------|-
A---|-----------3---3-----|-5---5------0---0-0-----|-
E---|---------------------|------------------------|-
      1   1     2   2       4   4                    
 

      s s s s q s s s s s e.   
G---|------------------------|-
D---|------------------------|-
A---|-2---2---5-2-2-2-2-2-5--|-
E---|------------------------|-
      1   1   4 1 1 1 1 1 4    
 
 
      s s s s q s s s s s e s   
G---|-------------------------|-
D---|-------------------------|-
A---|-2---2---5-2---2---2-5---|-
E---|-------------------------|-
      1   1   4 1   1   1 4     
 

VER-2: 
      q e e s t t t s. t t e.   
G---|-------------------------|-
D---|-------------------------|-
A---|-------------------------|-
E---|-0---0---x---5----5---3--|-
                  3    3   1    

 
      q s t t e s s s s t t e.   
G---|--------------------------|-
D---|-------------------7---5--|-
A---|--------------------------|-
E---|-0---x---0---0-5----------|-
                    1   3   1    
 
 
      q s s s s s s s s s s e   
G---|-------------------------|-
D---|-------------------------|-
A---|-------------------------|-
E---|-0---0-0---5---5---5-3---|-
                3   3   3 1     
 
 
CHR-3: 
      q s s e e    e  e. s   
G---|--------------12------|-
D---|---------7/14----14---|-
A---|-0---0-0--------------|-
E---|----------------------|-
              3    1  3      
 
 
      q s. t e e   s s s s s s   
G---|--------------------------|-
D---|----------5/7-5-3-5-3-----|-
A---|-0----0-0-------------5-3-|-
E---|--------------------------|-
               3   3 1 3 1 3 1   
 
 
      q e e s t t e s s e   
G---|---------------------|-
D---|---------------------|-
A---|-0---0---x---5---0---|-
E---|-------------------3-|-
              3   3     1   
 
 
MDA-2: 
      e s s s e. s s s s s e.   
G---|-------------------------|-
D---|------------4---5---3----|-
A---|---0---4-----------------|-
E---|-------------------------|-
            3    3   4   2      
 
 
CHR-4:
      q e e e e s t t s. t   
G---|----------------------|-
D---|----------------------|-
A---|-0---0---3---3---4----|-
E---|----------------------|-
              1   1   2      
 
 
      q e e s s s s s s s s   
G---|-----------------------|-
D---|-----------------------|-
A---|-0---0-3---3---4---4---|-
E---|-----------------------|-
            1   1   2   2     
 
 
      s e. h.   
G---|---------|-
D---|---------|-
A---|-0-------|-
E---|---------|-
                
 
MDB-2

MDA-3: 
      e s s s e. s s s s e.  s   
G---|--------------------------|-
D---|------------4---5---4/5---|-
A---|---0---4------------------|-
E---|--------------------------|-
            3    3   4   3       
 
 
CHR-5:
      q e e e s s s s s s   
G---|---------------------|-
D---|---------------------|-
A---|-0---0---3---3---4---|-
E---|---------------------|-
              1   1   2     
 

      q s t t e s s   s s  s  t t e   
G---|-----------------7-9h-7p-------|-
D---|-----------7-10h---------------|-
A---|-0---0---0---------------0---3-|-
E---|-------------------------------|-
                1 4   1 3  1      1   
 
 
      q e e s s s s e   e   
G---|---------------------|-
D---|---------------3/5-3-|-
A---|-0---0-3---3---------|-
E---|---------------------|-
            1   1   3   1   
 
 
ENDING:
      q s t t e e e e e   q s t t e e e e e   
G---|-------------------|-------------------|-
D---|-------------------|-------------------|-
A---|-----------------2-|-------------------|-
E---|-0---x---0---3-----|-0---x---0---5---3-|-
                  2   1               3   1   
 
 
      q e e e e s e s   
G---|-----------------|-
D---|-----------------|-
A---|-----------------|-
E---|-0---0---5---3---|-
              3   1     
 
 
      q e e s s s s s e s   
G---|---------------------|-
D---|---------------------|-
A---|---------------------|-
E---|-0---0-5---5---5-3---|-
            3   3   3 1     
 


_______________________________________________________
Contribuição: Gabriel Fernandes do Nascimento(gabrielonline@globo.com)

0 comentários

    mostrar mais comentários

    Conseguiu tocar?

    0tocaram0ainda não

    Grave um vídeo tocando Apache Rose Peacock e mande pra gente!

    00:00 / 00:00
    outros vídeos desta música
    repetirqualidadeautomática
    Outro vídeos desta música
      00:00 / 00:00
      automática
      OK