Notificações Amigos pendentes

      Red Hot Chili Peppers

      Around The World

      347.519 exibições
      Tom: C
      Intro:
      
      E|-12----12-12---12----12-12---12----12-12---12----12-12--12----12--12--12--
      B|-12----12-12---12----12-12---12----12-12---12----12-12--12----12--12--12--
      G|-14b16---------14b16---------14b16---------12b16--------14b16-b16-b16-b16- (6x)
      D|--------------------------------------------------------------------------
      A|--------------------------------------------------------------------------
      E|--------------------------------------------------------------------------
      
      
      E|--------------------------------------------------
      B|--------------------------------------------------
      G|--------------------------------------------------
      D|-0-3-5-3-5-5--0-3-5-3-5--0-3-5-3-5-3-5--0-3-5-3-5-
      A|--------------------------------------------------
      E|--------------------------------------------------
      
      
      Riff Verso 1 - 8x:
      
      E|--------------------------
      B|--------------------------
      G|--------------------------
      D|-0-3-5-3-5-3-5--0-3-5-3-5-
      A|--------------------------
      E|--------------------------
      
      
      Refrão 2x:
      
      E|------------------------------------------------------------------------------
      B|------------------------------------------------------------------------------
      G|---------------8---------------------10-8------------------8------------------
      D|-10-10-8-10-10---10--8H10-10-8-10-10------8H10-10-8-10-10----10--------8----8-
      A|----------------------------------------------------------------10--10---10---
      E|------------------------------------------------------------------------------
      
      
      E|--------------------------------------------------
      B|--------------------------------------------------
      G|----------------5b7r5-3-5-3-----------------------
      D|-0-3-5-3-5-5--0-----------------------------------
      A|--------------------------------------------------
      E|--------------------------------------------------
      
      
      Riff Verso 2 - 8x:
      
      E|--------------------------
      B|--------------------------
      G|--------------------------
      D|-0-3-5-3-5-3-5--0-3-5-3-5-
      A|--------------------------
      E|--------------------------
      
      
      E|---------------------------------
      B|---------------------------------
      G|---------------------------------
      D|-0-3-5-3-5-3-5-------------------
      A|----------------3b4r3-1-3-1------
      E|---------------------------------
      
      
      E|--------------------------
      B|--------------------------
      G|--------------------------
      D|---3-5-3-5-3-5--0-3-5-3-5-
      A|--------------------------
      E|--------------------------
      
      
      E|--------------------------
      B|--------------------------
      G|-------3-5-5b7-3-5/7-7~---
      D|-0-3/5--------------------
      A|--------------------------
      E|--------------------------
      
      
      E|----------------------------
      B|----6-8-6-8-6-8-----6-8-6-8-
      G|--7--------------7----------
      D|----------------------------
      A|----------------------------
      E|----------------------------
      
      
      E|--------------------------------
      B|----6-8-6-8-6-8-----6-8---------
      G|--7--------------7------3-5b7-3-
      D|--------------------------------
      A|--------------------------------
      E|--------------------------------
      
      
      E|--------------------------
      B|--------------------------
      G|-------------------------- (2x)
      D|-0-3-5-3-5-3-5--0-3-5-3-5-
      A|--------------------------
      E|--------------------------
      
      
      (Refrão)
      
      Solo:
      
      E|-12----12-12---12----12-12---12----12-12---12----12-12--12----12--12--12--
      B|-12----12-12---12----12-12---12----12-12---12----12-12--12----12--12--12--
      G|-14b16---------14b16---------14b16---------12b16--------14b16-b16-b16-b16- (3x)
      D|--------------------------------------------------------------------------
      A|--------------------------------------------------------------------------
      E|--------------------------------------------------------------------------
      
      
      E|-12----12--12--12--12--12--12--12--12--12--12--12--12-----
      B|-12----12--12--12--12--12--12--12--12--12--12--12--12-----
      G|-14b16-b16-b16-b16-b16-b16-b16-b16-b16-b16-b16-b16-b16r14- (3x)
      D|----------------------------------------------------------
      A|----------------------------------------------------------
      E|----------------------------------------------------------
      
      
      E|-------------------------
      B|-------------------------
      G|-------------------------
      D|-0-3-5-3-5-5--0-3-5-3-5-- (3x)
      A|-------------------------
      E|-------------------------
      
      
      E|----------------------------
      B|----------------------------
      G|----------------5b7r5-3-5-3-
      D|-0-3-5-3-5-5--0-------------
      A|----------------------------
      E|----------------------------
      
      
      Verso 3:
      
      E|----------------------------
      B|----6-8-6-8-8-------6-8-6-8-
      G|--7--------------7----------
      D|----------------------------
      A|----------------------------
      E|----------------------------
      
      
      E|--------------------8b10r8-7-8-7-
      B|----6-8-6-8-8--------------------
      G|--7--------------7---------------
      D|---------------------------------
      A|---------------------------------
      E|---------------------------------
      
      
      E|--------------------------
      B|--------------------------
      G|--------------------------
      D|-0-3-5-3-5-5--0-3-5-3-5---
      A|--------------------------
      E|--------------------------
      
      
      E|---------------------------------
      B|---------------------------------
      G|---------------------------------
      D|-0-3-5-3-5-5---------------------
      A|----------------3b4r3-1-3-1------
      E|---------------------------------
      
      
      E|--------------------------
      B|--------------------------
      G|--------------------------
      D|-0-3-5-3-5-5--0-3-5-3-5---
      A|--------------------------
      E|--------------------------
      
      
      E|--------------------------
      B|-------------------6------
      G|--------------3-5b7-7r5-3-
      D|-0-3-5-3-5-5--------------
      A|--------------------------
      E|--------------------------
      
      
      E|--------------------------
      B|--------------------------
      G|--------------------------
      D|-0-3-5-3-5-5--0-3-5-3-5--- (2x)
      A|--------------------------
      E|--------------------------
      
      
      (Refrão)
      
      Final:
      
         Dm
      E|13-13-13-13-13-13-13-13-13-13-13-13-13-13-13--
      B|15-15-15-15-15-15-15-15-15-15-15-15-15-15-15--
      G|14-14-14-14-14-14-14-14-14-14-14-14-14-14-14--
      D|----------------------------------------------
      A|----------------------------------------------
      E|----------------------------------------------
      
      
         C
      E|15-15-15-15-15-15-15-15-15-15-15-15-15-15-15-15
      B|17-17-17-17-17-17-17-17-17-17-17-17-17-17-17-17
      G|17-17-17-17-17-17-17-17-17-17-17-17-17-17-17-17
      D|-----------------------------------------------
      A|-----------------------------------------------
      E|-----------------------------------------------
      
      
         Dm
      E|17-17-17-17-17-17-17-17-20-20-20-20-20-20-20--
      B|18-18-18-18-18-18-18-18-18-18-18-18-18-18-18--
      G|19-19-19-19-19-19-19-19-19-19-19-19-19-19-19--
      D|----------------------------------------------
      A|----------------------------------------------
      E|----------------------------------------------
      
      
      Verso 1:
      All around the world
      We could make time
      Rompin' and a stompin'
      'Cause I'm in my prime
      
      Born in the north
      And sworn to entertain ya
      'Cause I'm down for
      The state of Pennsylvania
      
      I try not to whine
      But I must warn ya
      'Bout the motha fuckin girls
      From California
      
      Alabama baby
      Said hallelujah
      Good god girl
      I wish I knew ya
      
      Refrão:
      I know I know for sure
      That life is beautiful around the world
      I know I know it's you
      You say hello and then I say I do
      
      Verso 2:
      Come back baby
      'Cause i'd like to say
      I've been around the world
      Back from Bombay
      
      Fox hole love
      Pie in your face
      Living in and out
      Of a big fat suitcase
      
      Bonafide ride
      Step aside my Johnson
      Yes I could
      In the woods of Wisconsin
      
      Wake up the cake
      It's a lake she's kissin' me
      As they do when
      They do in Sicily
      
      Refrão:
      I know I know for sure
      That life is beautiful around the world
      I know I know it's you
      You say hello and then I say I do
      
      Verso 3:
      Where you want to go
      Who you want to be
      What you want to do
      Just come with me
      
      I saw God
      And I saw the fountains
      You and me girl
      Sittin' in the Swiss Mountains
      
      Me Oh My O
      Me and Guy O
      Freer than a bird
      'Cause we're rochin' Ohio
      
      Around the world
      I feel dutiful
      Take a wife
      'Cause life is beautiful
      
      Refrão:
      I know I know for sure
      Ding deng dong dong deng deng dong dong deng deng
      I know I know it´s you
      Deng deng dong dong deng deng deng dong ding dong
      
      Mother Russia do not suffer
      I know you're bold enough
      I've been around the world
      And I have seen your love
      I know I know it's you
      
      You say hello and then I say I do
        Composição: Anthony Kiedis / Chad Smith / Flea / John FruscianteColaboração e revisão:
        • gustavo.lacerda
        • Slovak

        Comentários 13

        140 .
        • abdielmagnus abdielmagnus: Em 27/09/2013 14:12

          Cade a cifra dessa porcaria como aceitaram isso, só riff VTNC

        • giovannaspk giovannaspk: Em 16/06/2013 13:11

          muito boa

        • austin150 austin150: Em 10/01/2013 23:06

          Só ta faltando a video aula

        • 555tothe666 555tothe666: Em 24/08/2012 19:13

          o cifra obriga a gente a site americano onde ta muito mais certo! o cifra tem que melhorar

        • lucasuzai lucasuzai: Em 02/04/2012 23:36

          só a intro q ta errada, mas da pra tira de ouvido ;)

        • aleredhot aleredhot: Em 02/02/2012 22:49

          gente ta errado a intro vai no guitar tab q ta certinho site americano

        • brunogdb brunogdb: Em 06/01/2012 09:13

          É só comigo que aquela introdução ficou falha demais? Nem com bilhões de efeitos isso adiantou.

        • jcajr jcajr: Em 06/10/2011 22:00

          pelo oq eu conheço da musica, esse "S" seria um Slide, mais a cifra ñ ta mt boa ñ ;s

        140 cancelar

        conseguiu tocar?

        • •••
        Paulo Junior Barretto957 visualizações
          ver covers de outras músicas »
          0:00 / 0:00

          Capítulos

            2 versões de baixo exibições contribuição e correção
            1 versão de bateria exibições contribuição e correção
            1 versão de partiturasformatodownloadscontribuição
            play/pausefechar subir/descer velocidade
            6ª corda E5ª corda A4ª corda D3ª corda G2ª corda B1ª corda E
              acordes
              publicidade
              fechar
              ok