Enviar cifraEntrar

Around The World

Red Hot Chili Peppers

Tab de baixo: Principal
exibições 126.325
Introdução

Parte 01

G|--------------------------------------------|
D|--------------------------------------------|
A|--------------------------------------------|
E|-0--0-0-0-0---------------------------------|

Parte 02 ( Tocar 3x )

G|--------------------------------------------|
D|-12h14-14-12h14-14-12h14-14-12h14-14--------|
A|--------------------------------------------|
E|--------------------------------------------|

G|--------------------------------------------|
D|-12-----------------------------------------|
A|----14-13-12-10-----------------------------|
E|--------------------------------------------|

G|--------------------------------------------|
D|-12h14-14-12h14-14-12h14-14-12--------------|
A|--------------------------------------------|
E|--------------------------------------------|

G|--------------------------------------------|
D|--------------------------------------------|
A|-14-13-12-10--------------------------------|
E|-------------12-10--------------------------|

Parte 03

G|--------------------------------------------|
D|-12h14-14-12h14-14-12h14-14-12h14-14--------|
A|--------------------------------------------|
E|--------------------------------------------|

G|--------------------------------------------|
D|-12-----------------------------------------|
A|----14-13-12-10-----------------------------|
E|--------------------------------------------|

Parte 04

G|--------------------------------------------|
D|-12h14-14-12h14-14-12h14-14-12--------------|
A|--------------------------------------------|
E|--------------------------------------------|

G|--------------------------------------------|
D|--------------------------------------------|
A|-14-13-12-10--------------------------------|
E|-------------12-10---3/---------------------|

Primeira parte

All around the world,we could make time...

Parte 01

G|---10-12-----9-10---10-12-----10-9----------|
D|-----------------------------------8--------|
A|--------------------------------------------|
E|-3-------0-1------3-------1-0---------------|

Parte 02

G|---10-12-----9-10---10-12-------------------|
D|--------------------------------3-2---------|
A|------------------------------1-----1-0-----|
E|-3-------0-1------3-------1-3---------------|

Parte 03

G|---10-12-----9-10---10-12-------------------|
D|--------------------------------------------|
A|--------------------------------------------|
E|-3-------0-1------3--------7~~-6~~----------|

Parte 04

G|---10-12-----9-10---10-12-------------------|
D|--------------------------------3-5---------|
A|------------------------------1-------------|
E|-3-------0-1------3-------1-3---------------|

Refrão

I know I know for sure...

Parte 01

G|---5-8-----7-7-----5------------------------|
D|-6-----5-5-----3-6-------5--5---------------|
A|---------------------3-3--------------------|
E|--------------------------------------------|

G|---5-8-----7-7-----5------------------------|
D|-6-----5-5-----3-6-------5------------------|
A|---------------------3-3---3/12\------------|
E|----------------------------------3---------|

Segunda parte

Come back baby,'cause i'd like to say...

Parte 01

G|---10-12-----9-10---10-12-----10-0----------|
D|-----------------------------------8--------|
A|--------------------------------------------|
E|-3-------0-1------3-------1-0---------------|

Parte 02

G|---10-12-----9-10---10-12-------------------|
D|--------------------------------3-2-3-2-3---|
A|------------------------------1-------------|
E|-3-------0-1------3-------1-3---------------|

Parte 03

G|---10-12-----9-10---10-12-------------------|
D|--------------------------------------------|
A|--------------------------------------------|
E|-3-------0-1------3--------7~~-6~~----------|

Parte 04

G|---10-12-----9-10---10-12-------------------|
D|----------------------------------3---------|
A|--------------------------------1-----------|
E|-3-------0-1------3-------0-1-3-------------|

Refrão 2

I know I know for sure...

Parte 01

G|---5-8-----7-7-----5------------------------|
D|-6-----5-5-----3-6-------5--5---------------|
A|---------------------3-3--------------------|
E|--------------------------------------------|

G|---5-8-----7-7-----5------------------------|
D|-6-----5-5-----3-6-------5--5/15------------|
A|---------------------3-3--------------------|
E|--------------------------------------------|

Introdução 02

Parte 02 ( Tocar 3x )

G|--------------------------------------------|
D|-12h14-14-12h14-14-12h14-14-12h14-14--------|
A|--------------------------------------------|
E|--------------------------------------------|

G|--------------------------------------------|
D|-12-----------------------------------------|
A|----14-13-12-10-----------------------------|
E|--------------------------------------------|

G|--------------------------------------------|
D|-12h14-14-12h14-14-12h14-14-12--------------|
A|--------------------------------------------|
E|--------------------------------------------|

G|--------------------------------------------|
D|--------------------------------------------|
A|-14-13-12-10--------------------------------|
E|-------------12-10--------------------------|

Parte 03

G|--------------------------------------------|
D|-12h14-14-12h14-14-12h14-14-12h14-14--------|
A|--------------------------------------------|
E|--------------------------------------------|

G|--------------------------------------------|
D|-12-----------------------------------------|
A|----14-13-12-10-----------------------------|
E|--------------------------------------------|

Parte 04

G|--------------------------------------------|
D|-12h14-14-12h14-14-12h14-14-12--------------|
A|--------------------------------------------|
E|--------------------------------------------|

G|--------------------------------------------|
D|--------------------------------------------|
A|-14-13-12-10--------------------------------|
E|-------------12-10--------------------------|

Terceira parte

Where you want to go...

Parte 01

G|---10-12-----9-10---10-12-12-11-10----------|
D|-----------------------------------12-11-10~|
A|--------------------------------------------|
E|-3-------0-1------3-------------------------|

Parte 02

G|---10-12-----9-10---10-12-----10-9----------|
D|-----------------------------------8--------|
A|--------------------------------------------|
E|-3-------0-1------3-------1-0---------------|

G|---10-12-----9-10---10-12-------------------|
D|--------------------------------3-2---------|
A|------------------------------1-----1-0-----|
E|-3-------0-1------3-------1-3---------------|

Parte 03

G|---10-12-----9-10---10-12-------------------|
D|--------------------------------------------|
A|--------------------------------------------|
E|-3-------0-1------3--------7~~-6~~----------|

G|---10-12-----9-10---------------------------|
D|------------------------------------3---3-5-|
A|----------------------------1-0-3-5---5-----|
E|-3-------0-1------3-1-0-1-3-----------------|

Refrão 3

I know I know for sure...

Parte 01

G|---------8----------------------------------|
D|-6-6-x-6---6-x-5------5---3-3-3-5-6-5-3-----|
A|----------------------------------------6---|
E|------------------3-3---3-------------------|

G|--------------------------------------------|
D|--------------------------------------------|
A|-3-0-3-0-3-0-3------------------------------|
E|--------------------------------------------|

Parte 02

G|--------------------------------------------|
D|--------------------------------------------|
A|---------6--5-3-----------------------------|
E|-4-4-x-4--------4--3-3-x-3--3---------------|

G|--------------------------------------------|
D|------------------------------3-5-----------|
A|--------------------6-3-3-5-6---------------|
E|-1-1--3-3--4-4--6-6-------------------------|

Parte 03

G|--------------------------------------------|
D|-6-6-6--x-6-6--5--------3-3-5-3-------------|
A|--------------------------------6-3-6-3-----|
E|-----------------3-3--3---------------------|

G|--------------------------------------------|
D|--------------------------------------------|
A|-5-6-5-3------------------------------------|
E|--------------------------------------------|

Parte 04

G|--------------------------------------------|
D|-----------------------------3-5-6-5-3------|
A|---------6-----------------------------6----|
E|-4-4-x-4---4-x-3-3-x-3-3-1-1----------------|

Parte Final 

Parte 01 ( tocar 6x )

G|--------------------------------------------|
D|--------------------------------------------|
A|-5-8-7--5-5-5-5-5--0-3-0--------------------|
E|--------------------------------------------|

Parte 02

G|--------------------------------------------|
D|---5----------------------------------------|
A|-5---8--5-5-5-5-5--0-3-0--------------------|
E|--------------------------------------------|

Parte 3 ( Tocar 7x )

G|--------------------------------------------|
D|--------------------------------------------|
A|-5-8-7--5-5-5-5-5--0-3-0--------------------|
E|--------------------------------------------|

parte 04

G|--------------------------------------------|
D|----------3/5-5-5-5-------------------------|
A|-5-8-7--5-----------0-3-0-------------------|
E|--------------------------------------------|

G|--------------------------------------------|
D|----------5/7-7-7-7\------------------------|
A|-5-8-7--5-----------------------------------|
E|--------------------------------------------|
  • 1
  • 2
  • 3
  • 4
  • 5
  • 6
  • 7
  • 8
  • 9
  • 10
  • 11
  • 12
    Composição: Anthony Kiedis / Chad Smith / Flea / John FruscianteColaboração e revisão:
    • Reginaldo Costa
    • Rodrigo Perdigão

    0 comentários

      mostrar mais comentários

      Conseguiu tocar?

      20tocaram0ainda não

      Grave um vídeo tocando Around The World e mande pra gente!

      00:00 / 00:00
      outros vídeos desta música
      repetirqualidadeautomática
      • automática
      Outro vídeos desta música
        Capítulos
        • Tocando a música
        • Dicas Iniciais / Equipamentos
        • Primeira Introdução - Parte 1 de 4
        • Primeira Introdução - Parte 2 de 4
        • Primeira Introdução - Parte 3 de 4
        • Primeira Introdução - Parte 4 de 4
        • Primeira Parte - Parte 1 de 4
        • Primeira Parte - Parte 2 de 4
        • Primeira Parte - Parte 3 de 4
        • Primeira Parte - Parte 4 de 4
        • Primeiro Refrão
        • Segunda Parte - Parte 1 de 4
        • Segunda Parte - Parte 2 de 4
        • Segunda Parte - Parte 3 de 4
        • Segunda Parte - Parte 4 de 4
        • Segundo Refrão
        • Segunda Introdução - Parte 1 de 3
        • Segunda Introdução - Parte 2 de 3
        • Segunda Introdução - Parte 3 de 3
        • Terceira Parte - Parte 1 de 3
        • Terceira Parte - Parte 2 de 3
        • Terceira Parte - Parte 3 de 3
        • Terceiro Refrão - Parte 1 de 4
        • Terceiro Refrão - Parte 2 de 4
        • Terceiro Refrão - Parte 3 de 4
        • Terceiro Refrão - Parte 4 de 4
        • Quarta Parte - Parte 1 de 4
        • Quarta Parte - Parte 2 de 4
        • Quarta Parte - Parte 3 de 4
        • Quarta Parte - Parte 4 de 4
        • Encerramento
        • Ficha Técnica e Erros de Gravação
        00:00 / 00:00
        automática
        • automática
        fecharplay/pause subir/descer velocidade
        fechar
        OK