Cifra Club

Baby Appeal

Red Hot Chili Peppers

Tab de baixo: Principal
exibições 1.672
Riff I 
G|---------------------| 
D|-4--44-2-4-----2-4---| 
A|-----------2h4-------| 
E|---------------------| 
 
 
Riff II 
G|--------------------------------| 
D|-4--44-2-4-----2-4--------------| 
A|-----------2h4------------------| 
E|-------------------2202-02-02---| 
 
 
Riff III 
G|---------------------| 
D|---------------------| 
A|-5--55-3-5-----3-5---| 
E|-----------3h5-------| 
 
 
Chorus 
G|-------------------------------| 
D|---------3---------------------| 
A|----4-5--------4--5------------| 
E|-0----------0--------0--3--5---| 
 
 
Interlude 
G|------------------------------------------------------------------------| 
D|------------------------------------------------------------------------|    
A|------------------------------------------------------------------------| 
E|-0-0--0-0--0-0--0-0--0-0--0-0--0-0--0-0--0-0--0-0--0-0--0-0--0-0--0-0---| 
 
G|-----------------| 
D|-----------------| 
A|-----------------| 
E|-6/7--6/7--6/7---| 
 
G|-----------------| 
D|-------------4---| 
A|-----------------| 
E|-0--0--0--0------| 
 
 
Outro 
G|------------------------------| 
D|------------------------------| 
A|------------------------------| 
E|-0-0--0-0--0-0--0-0-0-0--00---|

0 comentários

    mostrar mais comentários

    Conseguiu tocar?

    1tocaram0ainda não

    Grave um vídeo tocando Baby Appeal e mande pra gente!

    00:00 / 00:00
    outros vídeos desta música
    repetirqualidadeautomática
    Outro vídeos desta música
      00:00 / 00:00
      automática
      OK