Cifra Club

Bicycle Song

Red Hot Chili Peppers

Cifra: Principal
exibições 16.172
Tom: G
(D  A  Bm)2x  (G  D  Bm  G D Em)

Here she comes in a suit and tie
Shepard's bush and a leopard's pie
She marching to the funky beat of
James Brown and his dancing feet
Gonna set your fish on fire
Pistol whipping of desire
So please do not resist your fate
I'll pick you up yes it's a date (G  D  Em)


(C  D  Bm  Em)
How could I forget to mention the bicycle is a good invention
Sitting there in a silent movie
Beside the only girl who really ever moved me
Happy days but sad I'm facin
Heaven knows that I'm on the case
How could I forget to mention the bicycle


(G  D  C)
Somebody told the world
The beauty of your verse
My girl I heard it first
The beauty of your verse


(D  A  Bm)2x  (G  D  Bm  G D Em)
A sticky finger and a wicked taste
Gotta a lot of love and a lyrical case
Be sure to write it in your book
I promise not to look
Wanna smell your sunny face
Funny place but it's never a waste
I'd hop this fence to make amends
I hope this movie never ends  (G  D  Em)


(C  D  Bm  Em)
How could I forget to mention the bicycle is a good invention
Make it up makin you my business
A funny buttercup but I let her forgiveness
Happy days but sad I'm facin
Heaven knows that I'm on the case
How could I forget to mention the bicycle


(G  D  C)
Somebody told the world
The beauty of your verse
My girl I heard it first
The beauty of your verse


(G  D  C)
Somebody told the world
The beauty of your verse
My girl I heard it first
The beauty of your verse

Solo ( By Lucas Rangel)

(D  A  Bm)2x  (G  D  Bm  G D Em)

|------------------------------------------------------------------------------------------------|
|--5/7--8--7--5--5--------5/7--8--7--5--5--------5-------5/7--7--5--5--7-------5-----------------|
|-------------------7--7-------------------7--7-------7---------------------4--------------------|
|--------------------------------------------------5---------------------5-------2---------------|
|------------------------------------------------------------------------------------------------|
|------------------------------------------------------------------------------------------------|


(D  A  Bm)2x  (G  D  Bm  G D Em)

|-------------------------------------------------------------------------------------------------|
|--5/7--8--7--5--5--------5/7--8--7--5--5--------5-------5/7--7--5--5--7-------3--5--8--8--7--5~~-|
|-------------------7--7-------------------7--7-------7---------------------4---------------------|
|--------------------------------------------------5---------------------5------------------------|
|-------------------------------------------------------------------------------------------------|
|-------------------------------------------------------------------------------------------------|


Tab By Lucas Rangel
Acordes para:
    Composição: Anthony,Flea,John e ChadColaboração e revisão:
    • Lucas Azevedo

    0 comentários

      mostrar mais comentários

      Conseguiu tocar?

      5tocaram0ainda não

      Grave um vídeo tocando Bicycle Song e mande pra gente!

      00:00 / 00:00
      outros vídeos desta música
      repetirqualidadeautomática
      Outro vídeos desta música
        00:00 / 00:00
        automática
        OK