Cifra Club

Black Cross

Red Hot Chili Peppers

Tab de baixo: Principal
exibições 360
     H        E  S E.  E     H        E  S E.  S S  
G||-----------------------|------------------------|
D||-----------------------|------------------------|
A||----------------6------|------------------------|
E||-----------3-----------|-----------3----5---5-5-|

  E  E  E  S S S S S E  S E     E  E  E  S S S S S E.  S S  
-----------------------------|-----------------------------|
-----------------------------|-----------------------------|
---------------------6--6-6--|-----------------------------|
--5--5--5--5-5-3-3-3---------|--5--5--5--5-5-3-3-3-5---5-5-|

  E  E  E  S S S S S E  S E     E  E  E  S S S S S E.  S S  
-----------------------------|-----------------------------|
-----------------------------|-----------------------------|
---------------------6--6-6--|-----------------------------|
--5--5--5--5-5-3-3-3---------|--5--5--5--5-5-3-3-3-5---5-5-|

  E  E  E  S S S S S E  S E     E  E  E  S S S S S E.  S S  
-----------------------------|-----------------------------|
-----------------------------|-----------------------------|
---------------------6--6-6--|-----------------------------|
--5--5--5--5-5-3-3-3---------|--5--5--5--5-5-3-3-3-5---5-5-|

   S S S S S S S S  S S S S S S S S    E.  E  S E  E.  E  E.   
------------------------------------|-------------------------|
------------------------------------|-------------------------|
-------------------10---9---8---7---|-------------------------|
--10---9---8---7--------------------|--5---5--x-x--5---5------|

   S S S S S S S S  S S S S S S S S    E.  E  S E  E.  E  E.   
------------------------------------|-------------------------|
------------------------------------|-------------------------|
-------------------10---9---8---7---|-------------------------|
--10---9---8---7--------------------|--5---5--x-x--5---5------|

   S S S S S S S S  S S S S S S S S    E.  E  S E  E.  E  E.   
------------------------------------|-------------------------|
------------------------------------|-------------------------|
-------------------10---9---8---7---|-------------------------|
--10---9---8---7--------------------|--5---5--x-x--5---5------|

   S S S S S S S S  S S S S S S S S    E.  E  S E  E.  E  E.   
------------------------------------|-------------------------|
------------------------------------|-------------------------|
-------------------10---9---8---7---|-------------------------|
--10---9---8---7--------------------|--5---5--x-x--5---5------|

  Q    E  E  E  Q    E     Q    E  E  E  Q    E     Q    E  E  E  Q    E   
------------------------|------------------------|------------------------|
------------------------|------------------------|------------------------|
-------x--5--6--6----x--|--3----x--6--5--5-------|-------x--5--6--6----x--|
--5---------------------|---------------------x--|--5---------------------|

  Q    E  E  E  Q    E     Q    E  E  E  Q    E     E.  T E.  T E.  T E.  T E   
------------------------|------------------------|-----------------------------|
------------------------|------------------------|-----------------------------|
--3----x--6--5--5-------|-------x--5--6--6----x--|--------6-----5-----6-----5--|
---------------------x--|--5---------------------|--5--------------------------|

  Q    E  E  E  Q    E     E.  T E.  T E.  T E.  T E     Q    Q    H          
------------------------|-----------------------------|---------------------||
------------------------|-----------------------------|---------------------||
-------x--5--6--6----x--|--------6-----5-----6-----5--|---------------------||
--5---------------------|--5--------------------------|--5----5-------------||
Composição: Wiley CutlerColaboração e revisão:
  • Bruno

0 comentários

    mostrar mais comentários

    Conseguiu tocar?

    0tocaram0ainda não

    Grave um vídeo tocando Black Cross e mande pra gente!

    00:00 / 00:00
    outros vídeos desta música
    repetirqualidadeautomática
    Outro vídeos desta música
      00:00 / 00:00
      automática
      OK