Enviar cifraEntrar

By The Way

Red Hot Chili Peppers

Tab de baixo: Principal
exibições 137.870
Introdução( guitarra e baixo )

Parte 1

G|-10-10-10-10-10-10-10-10--9-9-9-9-9-9-9-9---|
D|--------------------------------------------|
A|--------------------------------------------|
E|--------------------------------------------|

Parte 2

G|--------------------------------------------|
D|-7-7-7-7-7-7-7-7—7-7-7-7-7-7-7-7/-----------|
A|--------------------------------------------|
E|--------------------------------------------|

Primeira parte

Standing in line To see the show tonight... 

parte 1

G|-17-17-17-17-17-17-17-17--------------------|
D|--------------------------------------------|
A|--------------------------------------------|
E|--------------------------------------------|

Parte 2

G|-21-21-21-21-21-21-21-21--------------------|
D|--------------------------------------------|
A|--------------------------------------------|
E|--------------------------------------------|

Parte 2 

G|--------------------------------------------|
D|-19-19-19-19--19-19-19-19-------------------|
A|--------------------------------------------|
E|--------------------------------------------|

G|--------------------------------------------|
D|-19-19-19-19--19-19-19----------------------|
A|-----------------------19\------------------|
E|--------------------------------------------|

Parte 3

G|--------------------------------------------|
D|------------------10-10-10-10-10-10-10-10---|
A|-8-8-8-8-8-8-8-8----------------------------|
E|--------------------------------------------|

Parte 4

G|----------------------------------7/14------|
D|-7-7-7-7-7-7-7-7--7-7-7-7-7-7-7-7-----------|
A|--------------------------------------------|
E|--------------------------------------------|

Parte 6

G|-17-17-17-17-17-17-17-17--------------------|
D|--------------------------------------------|
A|--------------------------------------------|
E|--------------------------------------------|

Parte 7

G|-21-21-21-21-21-21-21-21--------------------|
D|--------------------------------------------|
A|--------------------------------------------|
E|--------------------------------------------|

Parte 8 ( Tocar 2x )

G|--------------------------------------------|
D|-19-19-19-19-19-19-19-19--------------------|
A|--------------------------------------------|
E|--------------------------------------------|

Segunda parte

Steakknife, Card Shark,Con Job, Boot Cut...

Parte 1 ( tocar 4x )

G|--------------------------------------------|
D|---------3--------------------3-------------|
A|-----3h5--0-3h5-0-3h5-----3h5---0-3h5-------|
E|-0-0------------------0-0-------------0-3h5-|

G|--------------------------------------------|
D|---------3----------------------------------|
A|-----3h5--0-3h5-0-3h5----3h5-5-4h6-6-6-6-6-6|
E|-0-0------------------0-0-------------------|

Refrão

Standing in line,To see the show tonight... 

Parte 1

G|--------------------------------------------|
D|------------------10-10-10-10-10-10-10-10-10|
A|-8-8--8-8-8-10h12---------------------------|
E|--------------------------------------------|

Parte 2

G|--------------------------------------------|
D|-12-12--12-12-12-12-12--12-12-12-12-12-12-12|
A|--------------------------------------------|
E|--------------------------------------------|

G|--------------------------------------------|
D|-12-10--------------------------------------|
A|-------12-----------------------------------|
E|--------------------------------------------|

Parte 3

G|--------------------------------------------|
D|---------------10--10-10--10-10-10-10-10-10-|
A|-8-8--8-8-8-8-------------------------------|
E|--------------------------------------------|

Parte 4

G|--------------------------------------------|
D|--------------------------------------------|
A|-12-12--12-12-12-12-12-13--13-13-13-13-13---|
E|--------------------------------------------|

Terceira parte ( igual a segunda parte )

Black Jack,Dope Dick,Pawn Shop,Quick Pick... 

Parte 1 ( tocar 4x )

G|--------------------------------------------|
D|---------3--------------------3-------------|
A|-----3h5--0-3h5-0-3h5-----3h5---0-3h5-------|
E|-0-0------------------0-0-------------0-3h5-|

G|--------------------------------------------|
D|---------3----------------------------------|
A|-----3h5--0-3h5-0-3h5----3h5-5-4h6-6-6-6-6-6|
E|-0-0------------------0-0-------------------|

Segundo Refrão ( guitar,baixo e voz )

Standing in line,To see the show tonight... 

Parte 1

G|-10-10-10-10-10-10-10-10--9-9-9-9-9-9-9-9---|
D|--------------------------------------------|
A|--------------------------------------------|
E|--------------------------------------------|

Parte 2

G|--------------------------------------------|
D|-7-7-7-7-7-7-7-7—7-7-7-7-7-7-7-7/-----------|
A|--------------------------------------------|
E|--------------------------------------------|

parte 3

G|-17-17-17-17-17-17-17-----------------------|
D|--------------------------------------------|
A|--------------------------------------------|
E|--------------------------------------------|

Parte 4

G|-21-21-21-21-21-21-21-21--------------------|
D|--------------------------------------------|
A|--------------------------------------------|
E|--------------------------------------------|

Parte 5 

G|--------------------------------------------|
D|-19-19-19-19--19-19-19-19-------------------|
A|--------------------------------------------|
E|--------------------------------------------|

G|--------------------------------------------|
D|-19-19-19-19--19-19-19----------------------|
A|-----------------------19\------------------|
E|--------------------------------------------|

Parte 6

G|--------------------------------------------|
D|------------------10-10-10-10-10-10-10-10---|
A|-8-8-8-8-8-8-8-8----------------------------|
E|--------------------------------------------|

Parte 7

G|----------------------------------7/14------|
D|-7-7-7-7-7-7-7-7--7-7-7-7-7-7-7-7-----------|
A|--------------------------------------------|
E|--------------------------------------------|

Parte 8

G|-17-17-17-17-17-17-17-17--------------------|
D|--------------------------------------------|
A|--------------------------------------------|
E|--------------------------------------------|

Parte 9

G|-21-21-21-21-21-21-21-21--------------------|
D|--------------------------------------------|
A|--------------------------------------------|
E|--------------------------------------------|

Parte 10 ( Tocar 2x )

G|--------------------------------------------|
D|-19-19-19-19-19-19-19-19--------------------|
A|--------------------------------------------|
E|--------------------------------------------|

Quarta parte ( destaque para contrabaixo )

Oh ah, kissed ya then I missed ya...

Parte 1 ( tocar 4x )

G|--------------------------------------------|
D|---------3--------------------3-------------|
A|-----3h5--0-3h5-0-3h5-----3h5---0-3h5-------|
E|-0-0------------------0-0-------------0-3h5-|

G|--------------------------------------------|
D|---------3----------------------------------|
A|-----3h5--0-3h5-0-3h5----3h5-5-4h6-6-6-6-6-6|
E|-0-0------------------0-0-------------------|

Terceiro Refrão

Standing in line,To see the show tonight... 

Parte 1

G|--------------------------------------------|
D|-------------5/10--10-10-10-10-10-10-10-10--|
A|-8-8--8-8-8---------------------------------|
E|--------------------------------------------|

G|--------------------------------------------|
D|-12-12--12-12-12-12-12-12-10----------------|
A|-----------------------------12-12-10-12----|
E|--------------------------------------------|

Parte 2

G|--------------------------------------------|
D|---------------10--10-10--10-10-10-10-10-10-|
A|-8-8--8-8-8-8-------------------------------|
E|--------------------------------------------|

Parte 3

G|--------------------------------------------|
D|--------------------------------------------|
A|-12-12--12-12-12-12--13-13-13-13-13-13-13-10|
E|--------------------------------------------|

Parte 4

G|--------------------------------------------|
D|----------8-9-10--10-10--10-10-10-8-10-10---|
A|-8-8--8-8-----------------------------------|
E|--------------------------------------------|

G|--------------------------------------------|
D|-10h12-12--12-12-12-12-12-------------------|
A|--------------------------------------------|
E|--------------------------------------------|

G|--------------------------------------------|
D|-12—12-12—12-12-12--12-12-12/14-12----------|
A|--------------------------------------------|
E|--------------------------------------------|

Parte 5

G|--------------------------------------------|
D|---------------10--10-10--10-10-10-10-10----|
A|-8-8--8-8-8-8-------------------------------|
E|--------------------------------------------|

G|--------------------------------------------|
D|--------------------------------------------|
A|-12-12--12-12-12-12--13--13-13-13-13--------|
E|--------------------------------------------|

Quarto refrão Final ( só guitarra e voz )

Standing in line,To see the show tonight...
  • 1
  • 2
  • 3
  • 4
  • 5
  • 6
  • 7
  • 8
  • 9
  • 10
  • 11
  • 12

    0 comentários

      mostrar mais comentários

      Conseguiu tocar?

      43tocaram0ainda não

      Grave um vídeo tocando By The Way e mande pra gente!

      00:00 / 00:00
      outros vídeos desta música
      repetirqualidadeautomática
      • automática
      Outro vídeos desta música
        Capítulos
        • Tocando a música
        • Dicas iniciais / Equipamentos
        • Tocando Introdução
        • Ensinando Introdução
        • Dicas Primeira Parte
        • Tocando Primeira Parte
        • Ensinando Primeira Parte
        • Dicas Segunda Parte
        • Tocando Segunda Parte
        • Ensinando Segunda Parte
        • Dicas Refrão
        • Tocando Refrão
        • Ensinando Refrão
        • Dicas Repetição / Terceiro Refrão
        • Tocando Terceiro Refrão
        • Ensinando Terceiro Refrão
        • Encerramento
        • Ficha técnica / Erros de gravação
        00:00 / 00:00
        automática
        • automática
        fecharplay/pause subir/descer velocidade
        fechar
        OK