Cifra Club

By The Way

Red Hot Chili Peppers

Tab de baixo: Completa
Afinação: A afinação do baixo nessa música é Drop D, você deve afinar a corda a mizona (E) em D


Introdução:

G|----------------------------------------------------------------------------------------------------
D|--15-15-15-15-15-15-15-15--14-14-14-14-14-14-14-14--------------------------------------------------
A|----------------------------------------------------12-12-12-12-12-12-12-12-12-12-12-12-12-12-12-12-
D|----------------------------------------------------------------------------------------------------


Primeiro refrão:

G|--/17-17-17-17-17-17-17-17--21-21-21-21-21-21-21-21---------------------------------------------------
D|-----------------------------------------------------19-19-19-19-19-19-19-19-19-19-19-19-19-19-19-19--
A|------------------------------------------------------------------------------------------------------
D|------------------------------------------------------------------------------------------------------

G|----------------------------------------------------------------------------
D|------------------10-10-10-10-10-10-10-10--7-7-7-7-7-7-7-7-7-7-7-7-7-7-7-7--
A|--8-8-8-8-8-8-8-8-----------------------------------------------------------
D|----------------------------------------------------------------------------

G|--/17-17-17-17-17-17-17-17--21-21-21-21-21-21-21-21---------------------------------------------------
D|-----------------------------------------------------19-19-19-19-19-19-19-19-19-19-19-19-19-19-19-19--
A|------------------------------------------------------------------------------------------------------
D|------------------------------------------------------------------------------------------------------


Verso:

G|--------------------------------------------------------
D|-----------3-------------------------3------------------
A|-------3h5---3h5--3h5--3h5-------3h5---3h5--0h3---------
D|--0-0-----------------------0-0-------------------------

G|--------------------------------------------------------
D|-----------3--------------------------------------------
A|-------3h5---3h5--3h5--3h5-------3h5-5--6-6-6-6-6-6-----
D|--0-0-----------------------0-0-------------------------


G|--------------------------------------------------------
D|-----------3-------------------------3------------------
A|-------3h5---3h5--3h5--3h5-------3h5---3h5--0h3---------
D|--0-0-----------------------0-0-------------------------

G|--------------------------------------------------------
D|-----------3--------------------------------------------
A|-------3h5---3h5--3h5--3h5-------3h5-5--6-6-6-6-6-6-----
D|--0-0-----------------------0-0-------------------------

G|--------------------------------------------------------
D|-----------3-------------------------3------------------
A|-------3h5---3h5--3h5--3h5-------3h5---3h5--0h3---------
D|--0-0-----------------------0-0-------------------------

G|--------------------------------------------------------
D|-----------3--------------------------------------------
A|-------3h5---3h5--3h5--3h5-------3h5-5--6-6-6-6-6-6-----
D|--0-0-----------------------0-0-------------------------

G|--------------------------------------------------------
D|-----------3-------------------------3------------------
A|-------3h5---3h5--3h5--3h5-------3h5---3h5--0h3---------
D|--0-0-----------------------0-0-------------------------

G|--------------------------------------------------------
D|-----------3--------------------------------------------
A|-------3h5---3h5--3h5--3h5-------3h5-5--6-6-6-6-6-6-----
D|--0-0-----------------------0-0-------------------------


Segundo Refrão:

G|-----------------------------------------------------------------------------------------------
D|------------------10--10--10--10-10--10---12--12--12--12-12-12-12--12--12--12-12-12-12--10-10--
A|--8--8--8--8-8--8------------------------------------------------------------------------------
D|-----------------------------------------------------------------------------------------------

G|-----------------------------------------------------------------------------------------------
D|------------------10--10--10--10-10--10---7-7-7-7-7-7-7-7--8-8-8-8-8-8-8-8---------------------
A|--8--8--8--8-8--8------------------------------------------------------------------------------
D|-----------------------------------------------------------------------------------------------


Verso:

G|--------------------------------------------------------
D|-----------3-------------------------3------------------
A|-------3h5---3h5--3h5--3h5-------3h5---3h5--0h3---------
D|--0-0-----------------------0-0-------------------------

G|--------------------------------------------------------
D|-----------3--------------------------------------------
A|-------3h5---3h5--3h5--3h5-------3h5-5--6-6-6-6-6-6-----
D|--0-0-----------------------0-0-------------------------


G|--------------------------------------------------------
D|-----------3-------------------------3------------------
A|-------3h5---3h5--3h5--3h5-------3h5---3h5--0h3---------
D|--0-0-----------------------0-0-------------------------

G|--------------------------------------------------------
D|-----------3--------------------------------------------
A|-------3h5---3h5--3h5--3h5-------3h5-5--6-6-6-6-6-6-----
D|--0-0-----------------------0-0-------------------------

G|--------------------------------------------------------
D|-----------3-------------------------3------------------
A|-------3h5---3h5--3h5--3h5-------3h5---3h5--0h3---------
D|--0-0-----------------------0-0-------------------------

G|--------------------------------------------------------
D|-----------3--------------------------------------------
A|-------3h5---3h5--3h5--3h5-------3h5-5--6-6-6-6-6-6-----
D|--0-0-----------------------0-0-------------------------

G|--------------------------------------------------------
D|-----------3-------------------------3------------------
A|-------3h5---3h5--3h5--3h5-------3h5---3h5--0h3---------
D|--0-0-----------------------0-0-------------------------

G|--------------------------------------------------------
D|-----------3--------------------------------------------
A|-------3h5---3h5--3h5--3h5-------3h5-5--6-6-6-6-6-6-----
D|--0-0-----------------------0-0-------------------------



Terceiro Refrão:

G|----------------------------------------------------------------------------------------------------
D|--15-15-15-15-15-15-15-15--14-14-14-14-14-14-14-14--------------------------------------------------
A|----------------------------------------------------12-12-12-12-12-12-12-12-12-12-12-12-12-12-12-12-
D|----------------------------------------------------------------------------------------------------

G|--/17-17-17-17-17-17-17-17--21-21-21-21-21-21-21-21---------------------------------------------------
D|-----------------------------------------------------19-19-19-19-19-19-19-19-19-19-19-19-19-19-19-19--
A|------------------------------------------------------------------------------------------------------
D|------------------------------------------------------------------------------------------------------

G|----------------------------------------------------------------------------
D|------------------10-10-10-10-10-10-10-10--7-7-7-7-7-7-7-7-7-7-7-7-7-7-7-7--
A|--8-8-8-8-8-8-8-8-----------------------------------------------------------
D|----------------------------------------------------------------------------

G|--/17-17-17-17-17-17-17-17--21-21-21-21-21-21-21-21---------------------------------------------------
D|-----------------------------------------------------19-19-19-19-19-19-19-19-19-19-19-19-19-19-19-19--
A|------------------------------------------------------------------------------------------------------
D|------------------------------------------------------------------------------------------------------


Verso:

G|--------------------------------------------------------
D|-----------3-------------------------3------------------
A|-------3h5---3h5--3h5--3h5-------3h5---3h5--0h3---------
D|--0-0-----------------------0-0-------------------------

G|--------------------------------------------------------
D|-----------3--------------------------------------------
A|-------3h5---3h5--3h5--3h5-------3h5-5--6-6-6-6-6-6-----
D|--0-0-----------------------0-0-------------------------


G|--------------------------------------------------------
D|-----------3-------------------------3------------------
A|-------3h5---3h5--3h5--3h5-------3h5---3h5--0h3---------
D|--0-0-----------------------0-0-------------------------

G|--------------------------------------------------------
D|-----------3--------------------------------------------
A|-------3h5---3h5--3h5--3h5-------3h5-5--6-6-6-6-6-6-----
D|--0-0-----------------------0-0-------------------------

G|--------------------------------------------------------
D|-----------3-------------------------3------------------
A|-------3h5---3h5--3h5--3h5-------3h5---3h5--0h3---------
D|--0-0-----------------------0-0-------------------------

G|--------------------------------------------------------
D|-----------3--------------------------------------------
A|-------3h5---3h5--3h5--3h5-------3h5-5--6-6-6-6-6-6-----
D|--0-0-----------------------0-0-------------------------


Quarto Refrão:


G|-----------------------------------------------------------------------------------------------
D|------------------10--10--10--10-10--10---12--12--12--12-12-12-12--12--12--12-12-12-12--10-10--
A|--8--8--8--8-8--8------------------------------------------------------------------------------
D|-----------------------------------------------------------------------------------------------

G|-----------------------------------------------------------------------------------------------
D|------------------10--10--10--10-10--10---7-7-7-7-7-7-7-7--8-8-8-8-8-8-8-8---------------------
A|--8--8--8--8-8--8------------------------------------------------------------------------------
D|-----------------------------------------------------------------------------------------------

G|-----------------------------------------------------------------------------------------------
D|------------------10--10--10--10-10--10---12--12--12--12-12-12-12--12--12--12-12-12-12--10-10--
A|--8--8--8--8-8--8------------------------------------------------------------------------------
D|-----------------------------------------------------------------------------------------------

G|-----------------------------------------------------------------------------------------------
D|------------------10--10--10--10-10--10---7-7-7-7-7-7-7-7--8-8-8-8-8-8-8-8---------------------
A|--8--8--8--8-8--8------------------------------------------------------------------------------
D|-----------------------------------------------------------------------------------------------


Ultimo Refrão:


No ultimo refrão fica apenas a guitarra, mas na ultima nota você coloca o dedo na casa 12 da corda Lá (A) e toca empurrando a corda para cima ou para baixo com o dedo do meio e indicador da mão esquerda.

G|------------------------------------
D|------------------------------------
A|--12--------------------------------
D|------------------------------------



Composição de Anthony Kiedis / Chad Smith / Flea / John Frusciante
Colaboração e revisão:
  • José Câmara
  • Reginaldo Jr
2.667 exibições

0 comentários

Ver todos os comentários

Conseguiu tocar?

1 Tocaram 0 Ainda não

Grave um vídeo tocando By The Way e nos envie!

00:00 / 00:00
Outros vídeos desta música
Repetir Qualidade Automático
Outros vídeos desta música
00:00 / 00:00
Automático
Capítulos
  • Tocando a música
  • Dicas iniciais / Equipamentos
  • Tocando Introdução
  • Ensinando Introdução
  • Dicas Primeira Parte
  • Tocando Primeira Parte
  • Ensinando Primeira Parte
  • Dicas Segunda Parte
  • Tocando Segunda Parte
  • Ensinando Segunda Parte
  • Dicas Refrão
  • Tocando Refrão
  • Ensinando Refrão
  • Dicas Repetição / Terceiro Refrão
  • Tocando Terceiro Refrão
  • Ensinando Terceiro Refrão
  • Encerramento
  • Ficha técnica / Erros de gravação

Cifra Club Pro

Aproveite o Cifra Club com benefícios exclusivos e sem anúncios
Cifra Club Pro
Aproveite o Cifra Club com benefícios exclusivos e sem anúncios
OK