Cifra Club

By The Way

Red Hot Chili Peppers

Tab de baixo: Simplificada
(intro)

G|-17-17-17-17-17-17-17-17--17-17-17-17-17-17-17-17--------------
D|-15-15-15-15-15-15-15-15--14-14-14-14-14-14-14-14--------------
A|---------------------------------------------------------------
E|---------------------------------------------------------------

G|-14-14-14-14-14-14-14-14-14-14-14-14-14-14-14-14---------------
D|-14-14-14-14-14-14-14-14-14-14-14-14-14-14-14-14---------------
A|---------------------------------------------------------------
E|---------------------------------------------------------------

(verso)
G|---------------------------------------------------------------
D|-----------3------------------------3--------55666-------------
A|--55--3h5-----3h5--0--3h5--55--3h5-----3h5---------------------
E|---------------------------------------------------------------
Composição de Anthony Kiedis / Chad Smith / Flea / John Frusciante
Colaboração e revisão:
  • Bruno Sousa
4.779 exibições

0 comentários

Ver todos os comentários

Conseguiu tocar?

1 Tocaram 1 Ainda não

Grave um vídeo tocando By The Way e nos envie!

00:00 / 00:00
Outros vídeos desta música
Repetir Qualidade Automático
Outros vídeos desta música
00:00 / 00:00
Automático
Capítulos
  • Tocando a música
  • Dicas iniciais / Equipamentos
  • Tocando Introdução
  • Ensinando Introdução
  • Dicas Primeira Parte
  • Tocando Primeira Parte
  • Ensinando Primeira Parte
  • Dicas Segunda Parte
  • Tocando Segunda Parte
  • Ensinando Segunda Parte
  • Dicas Refrão
  • Tocando Refrão
  • Ensinando Refrão
  • Dicas Repetição / Terceiro Refrão
  • Tocando Terceiro Refrão
  • Ensinando Terceiro Refrão
  • Encerramento
  • Ficha técnica / Erros de gravação

Cifra Club Pro

Aproveite o Cifra Club com benefícios exclusivos e sem anúncios
Cifra Club Pro
Aproveite o Cifra Club com benefícios exclusivos e sem anúncios
OK