Cifra Club

Cabron

Red Hot Chili Peppers

Cifra: Principal
exibições 129.021
Tom: D (com acordes na forma de G) Capotraste na 7ª casa
                 (2x)              (3x)
E|----17------14-----|-----------------|--10-9-|
B|----x-------x------|------12---------|-------|
G|----14------11-----|---------12------|-------|
D|----16------12-----|------------12---|-------|
A|----17------14-----|---10------------|-------|
E|-------------------|-----------------|-------|

E|-----------------10-----|-----------------7-----|
B|-----------------10-(5x)|-----------------7-----|
G|-11-9------------11-----|-9---------------7-(5x)|  (2x)
D|------12-11-12---12-----|---12-11---------------|
A|------------------------|---------12-9----------|
E|------------------------|-----------------------|
   G      Em
Cabron  Cabron
Cabron  Cabron

I see you in the park
You're always wearing
Dodger blue
My Dog and me and
Anyone frow my other crew

 C                      D
I am small but i am strong
I'll get it on with you
 G              Em
If you want me to
What else can i do

Everyone would take a cue
From anything you do
If you want them to
What else can they do

I don't want to fight
I want to get along with you
This time of night's
For singin'songs
About the local news

Cabron  cabron
cabron  cabron

I will come around and make peace
get down have a barbeque
let's keep away
and do eletric boogiloo

           G                       Em
E|-------10--------------|---------7-------------|
B|-------10--------------|---------7-------------|
G|-------11--------------|---------7-------------|
D|-------12--------------|-----------------------|
A|-----------------------|-----------------------|
E|-----------------------|-----------------------|

E|--9/---14------------|--9/---7--------------|--7/---3-------|
B|---------------------|----------------------|---------------|
G|---------------------|----------------------|---------------|
D|---------------------|----------------------|---------------|
A|---------------------|----------------------|---------------|
E|---------------------|----------------------|---------------|
Acordes para:

    0 comentários

      mostrar mais comentários

      Conseguiu tocar?

      13tocaram0ainda não

      Grave um vídeo tocando Cabron e mande pra gente!

      00:00 / 00:00
      outros vídeos desta música
      repetirqualidadeautomática
      Outro vídeos desta música
        00:00 / 00:00
        automática
        OK