Cifra Club

Aprenda

Californication

Red Hot Chili Peppers

Cifra: Guitarra-simplificada (violão e guitarra)
Tom: A
[Introdução 2x] Am  F

   Am         F
E|------------------------------------------|
B|-----0-1----------------------------------|
G|----------------0-2-----------------------|
D|---2--------------------------------------|
A|-0------------3---------------------------|
E|------------1-----------------------------|


[Primeira Parte]

  Am
Psychic spies from China
         F
Try to steal your mind's elation
 Am
Little girls from Sweden
          F
Dream of silver screen quotations
    C                  G
And if you want these kind of dreams
      F        Dm    Am  F  Am  F
It's Californication

         Am
It's the    edge of the world
            F
And all of western civilization

     Am
The sun may rise in the East
             F
At least it settles in the final location
     C                G
It's understood that Hollywood
       F        Dm
Sells Californication


[Segunda Parte]

( Am  F7M  Am  F7M )

 Am
Pay your surgeon very well
     F7M
To break the spell of aging
   Am
Celebrity Skin is this your chin
   F7M
Or is that war your waging
Am                F7M
   First born unicorn
Am                 F7M
   Hard core soft porn


[Primeiro Refrão]

  C           G    Dm    Am
Dream of Californication
  C           G    Dm
Dream of Californication


[Repetição da Primeira Parte]

( Am  F  Am  F )

 Am
Marry me girl be my fairy to the world
       F
Be my very own constellation
   Am
A teenage bride with a baby inside
         F
Getting high on information
     C                    G
And buy me a star on the Boulevard
      F        Dm    Am  F  Am  F
It's Californication

  Am
Space may be the final frontier
          F
But it's made in a Hollywood basement
 Am
Cobain can you hear the spheres
         F
Singing songs off station to station
    C               G
And Alderaan's not far away
      F        Dm
It's Californication


[Repetição da Segunda Parte]

( Am  F7M  Am  F7M )

 Am
Born and raised by those who praise
     F7M
Control of population
Am
Everybody's been there and
   F7M
I don't mean on vacation
Am                F7M
   First born unicorn
Am                 F7M
   Hard core soft porn


[Segundo Refrão]

  C           G    Dm    Am
Dream of Californication
  C           G    Dm
Dream of Californication
  C           G    Dm    Am
Dream of Californication
  C           G    Dm
Dream of Californication


Solo:

1|-------9----------------------9----------------------|
2|-10---------------------10---------------------------|
3|-----------11b13r11~---------------11b13r11----11-11-|
4|-----------------------------------------------------|
5|-----------------------------------------------------|
6|-----------------------------------------------------|


1|-----------------------------------------------------|
2|-----------------------------------------------------|
3|-11p9-------------------9-----11b13r11--9------------|
4|-------11--11~---9--11---------------------11--------|
5|-----------------------------------------------------|
6|-----------------------------------------------------|


1|-------9--12--14~-------------9--12--14b16r--14~-----|
2|-10---------------------10---------------------------|
3|-----------------------------------------------------|
4|-----------------------------------------------------|
5|-----------------------------------------------------|
6|-----------------------------------------------------|


1|-17---16---14--------14------------------------------|
2|----------------17--------17-14---17---14------------|
3|-----------------------------------------------------|
4|-----------------------------------------------------|
5|-----------------------------------------------------|
6|-----------------------------------------------------|


1|-----------------------------------------------------|
2|-14-------14-------14-------17---14------------------|
3|-16b18~---16b18~---16b18-----------------------------|
4|-----------------------------------------------------|
5|-----------------------------------------------------|
6|-----------------------------------------------------|


1|-14b16r14--------------------------------------------|
2|-----------17-14-17---14-------------17---15---14----|
3|---------------------------16---14-----------------14|
4|-----------------------------------------------------|
5|-----------------------------------------------------|
6|-----------------------------------------------------|



[Repetição da Primeira Parte]

( Am  F  Am  F )

     Am
Destruction leads to a very rough road
       F
But it also breeds creation
    Am
And earthquakes are to a girl's guitar
         F
They're just another good vibration
     C                    G
And tidal waves couldn't save the world
      F        Dm
From Californication


[Repetição da Segunda Parte]

( Am  F7M  Am  F7M )

 Am
Pay your surgeon very well
     F7M
To break the spell of aging
 Am
Sicker than the rest

There is no test
      F7M
But this is what you're craving
Am                F7M
   First born unicorn
Am                 F7M
   Hard core soft porn


[Terceiro Refrão]

  C           G    Dm    Am
Dream of Californication
  C           G    Dm
Dream of Californication
  C           G    Dm    Am
Dream of Californication
  C           G    Dm
Dream of Californication
Composição de Anthony Kiedis / Chad Smith / Flea / John Frusciante
Colaboração e revisão:
  • Vinícius Dias
1.706 exibições
  • Simplificar cifra
    • ½ Tom
    • A
    • Bb
    • B
    • C
    • Db
    • D
    • Eb
    • E
    • F
    • F#
    • G
    • Ab
  • Adicionar à lista

    0 comentários

    Mostrar mais comentários

    Conseguiu tocar?

    1 Tocaram 0 Ainda não

    Grave um vídeo tocando Californication e mande pra gente!

    00:00 / 00:00
    outros vídeos desta música
    repetir qualidade Automático
    Outros vídeos desta música
    00:00 / 00:00
    Automático
    Capítulos
    • Tocando a Música
    • Apresentação / Equipamentos
    • Acordes
    • Tocando Intro / Primeira Parte
    • Ensinando Intro / Primeira Parte
    • Tocando Segunda Parte
    • Ensinando Segunda Parte
    • Tocando Refrão
    • Ensinando Refrão
    • Dicas da música
    • Tocando Segundo Refrão
    • Ensinando Segundo Refrão
    • Tocando Solo
    • Ensinando Solo - Parte 1
    • Ensinando Solo - Parte 2
    • Ensinando Solo - Parte 3
    • Ensinando Solo - Parte 4
    • Ensinando Solo - Parte 5
    • Ensinando Solo - Parte 6
    • Tocando Solo Lento 1
    • Tocando Solo Lento 2
    • Encerramento
    OK