Enviar cifraEntrar

Californication

Red Hot Chili Peppers

Tab de baixo: Principal
exibições 444.083
Intro:

G|-----9-9-7h9p7--------7-7--------------------------
D|-7-7-----------10---------10-----------------------
A|------------------8-8------------------------------
E|---------------------------------------------------

G|-----9-9-7h9p7--------10-10-7----------------------
D|-7-7-----------10----------------------------------
A|------------------8-8------------------------------
E|---------------------------------------------------



Primeira parte (2x):

G|-----9-9-7h9p7--------7-7--------------------------
D|-7-7-----------10---------10-----------------------
A|------------------8-8------------------------------
E|---------------------------------------------------

G|-----9-9-7h9p7--------10-10-7----------------------
D|-7-7-----------10----------------------------------
A|------------------8-8------------------------------
E|---------------------------------------------------

G|-----9-9-7h9p7--------7-7--------------------------
D|-7-7-----------10---------10-----------------------
A|------------------8-8------------------------------
E|---------------------------------------------------

G|-----9-9-7h9p7--------10-10-7\---------------------
D|-7-7-----------10----------------------------------
A|------------------8-8------------------------------
E|---------------------------------------------------

G|---------------------------------------------------
D|---------------------------------------------------
A|-3-3---------5-5-----------------------------------
E|-----3-3-1-1---------------------------------------


Psychic spies from China
Try to steal your mind's elation
Little girls from Sweden
Dream of silver screen quotations
And if you want these kind of dreams
It's Californication

It's the edge of the world
And all of western civilization
The sun may rise in the East
At least it settles in the final location
It's understood that Hollywood
sells Californication


Segunda parte:

G|---------------------------------------------------
D|-7-7-7-7-7-7-7-7-9-10---------------10-9-----------
A|----------------------8-8-8-8-8-8-8------10--------
E|---------------------------------------------------

G|---------------------------------------------------
D|-7-7-7-7-7-7-7-7-9-10-------------10/14-12---------
A|----------------------8-8-8-8-8-8----------15-14---
E|---------------------------------------------------

G|---------------------------------------------------
D|-7-7-7-7-7-7-7-7-9-10---------------10-9-----------
A|----------------------8-8-8-8-8-8-8------10--------
E|---------------------------------------------------

G|---------------------------------------------------
D|-7-7-7-7-7-7-7-7-9-10---------------10-9-----------
A|----------------------8-8-8-8-8-8-8------10--------
E|---------------------------------------------------

G|---------------------------------------------------
D|-7-7-7-7-7-7-7-7-9-10--------------10-9-7----------
A|----------------------8-8-8-8-8-8---------10\------
E|---------------------------------------------------

G|---------------------------------------------------
D|-7-7-7-7-7-7-7-7-9-10------------------------------
A|----------------------8-8-8-8-8-8-8-8-8-8----------
E|---------------------------------------------------

(...)
Pay your surgeon very well
To break the spell of aging
Celebrity skin is this your chin
Or is that war your waging
First born unicorn
Hard core soft porn


Refrão:

G|---------------------------------------------------
D|---------------------------------------------------
A|-3-3-----5-5-5h7-----3-3---2-3-5-------------------
E|-----3-3---------5-5-----3-------------------------

(...)
Dream of Californication
Dream of Californication


(Primeira parte)

(...)
Marry me girl be my fairy to the world
Be my very own constellation
A teenage bride with a baby inside
Getting high on information
And buy me a star on the boulevard
It's Californication
Space may be the final frontier
But it's made in a Hollywood basement
Cobain can you hear the spheres
Singing songs off station to station
And Alderaan's not far away
It's Californication


Repetição da segunda parte:

G|---------------------------------------------------
D|-7-7-7-7-7-7-7-7-9-10---------------10-9-----------
A|----------------------8-8-8-8-8-8-8------10--------
E|---------------------------------------------------

G|---------------------------------------------------
D|-7-7-7-7-7-7-7-7-9-10---------------10-9-7---------
A|----------------------8-8-8-8-8-8-8--------10------
E|---------------------------------------------------

G|---------------------------------------------------
D|-7-7-7-7-7-7-7-7-9-10---------------10-9-----------
A|----------------------8-8-8-8-8-8-8------10--------
E|---------------------------------------------------

G|---------------------------------------------------
D|-7-7-7-7-7-7-7-7-9-10-------------/12-10-9---------
A|----------------------8-8-8-8-8-8------------------
E|---------------------------------------------------

G|---------------------------------------------------
D|-7-7-7-7-7-7-7-7-9-10---------------10-9-----------
A|----------------------8-8-8-8-8-8-8------10--------
E|---------------------------------------------------

G|---------------------------------------------------
D|-7-7-7-7-7-7-7-7-9-10-----------/15-15-15-15-15-15\
A|----------------------8-8-8-8-8--------------------
E|---------------------------------------------------

(...)
Born and raised by those who praise
Control of population, everybody's been there and
I don't mean on vacation
First born unicorn
Hard core soft porn


Repetição do refrão:

G|---------------------------------------------------
D|-----------------------------5---0-0-0-0-----------
A|-3-3-----5-5-5h7-----3-3---------------------------
E|-----3-3---------5-5-----0-3---3-------------------

G|-7-------7-----------------------------------------
D|---7-7-7---7---------------------------------------
A|---------------------------------------------------
E|---------------------------------------------------

G|---------------------------------------------------
D|---------------------------------------------------
A|-3-3-----5-5-5h7-----3-5-3-0---2-3-5---------------
E|-----3-3---------5-5---------3---------------------

(...)
Dream of Californication
Dream of Californication
Dream of Californication
Dream of Californication


Solo de guitarra:

G|----14----13---------------------------------------
D|----------------16-14------------------------------
A|---------------------------------------------------
E|-14----14----14-------14\-10-10-10-10-10-10--------

G|-----14----13--------------------------------------
D|-----------------16-14-----------------------------
A|---------------------------------------------------
E|-/14----14----14-------14\-10-10-10-10-10-10-------

G|---------------------------------------------------
D|-------9---------12-----7-------2------------------
A|-----9--------12------7-------2--------------------
E|-0-7-----7-10-------5----5-0-----------------------

G|------14----13-------------------------------------
D|------------------16-14----------------------------
A|---------------------------------------------------
E|-0-14----14----14-------14\-10-10-10-10-10-10------

G|-----14----13--------------------------------------
D|-----------------16-14-----------------------------
A|---------------------------------------------------
E|-/14----14----14-------14\-10-10-10-10-10-10-------

G|---------------------------------------------------
D|-------9---------12-----7-------2------------------
A|-----9--------12------7-------2--------------------
E|-0-7-----7-10-------5----5-0-----------------------

G|---------------------------------------------------
D|-------9---------12-----7-------2------------------
A|-----9--------12------7-------2--------------------
E|-0-7-----7-10-------5----5-0-----------------------

G|---------------------------------------------------
D|-------9---------12-----7-------2------------------
A|-----9--------12------7-------2--------------------
E|-0-7-----7-10-------5----5-0-----------------------



(Primeira parte)

(...)
Destruction leads to a very rough road
But it also breeds creation
And earthquakes are to a girl's guitar
They're just another good vibration
And tidal waves couldn't save the world
From Californication


Repetição da segunda parte:

G|---------------------------------------------------
D|-7-7-7-7-7-7-7-7-9-10---------------10-9-----------
A|----------------------8-8-8-8-8-8-8------10--------
E|---------------------------------------------------

G|---------------------------------------------------
D|-7-7-7-7-7-7-7-7-9-10------------------------------
A|----------------------8-8-8-7-7-5-0-3-2-0----------
E|---------------------------------------------------

G|---------------------------------------------------
D|-7-7-7-7-7-7-7-7-9-10---------------10-9-----------
A|----------------------8-8-8-8-8-8-8------10--------
E|---------------------------------------------------

G|---------------------------------------------------
D|-7-7-7-7-7-7-7-7-9-10-----------7-----10-9---------
A|----------------------8-8-8-8-8---8-8------10------
E|---------------------------------------------------

G|---------------------------------------------------
D|-7-7-7-7-7-7-7-7-9-10-------------10-10-9h10p9-----
A|----------------------8-8-8-8-8-8--------------10--
E|---------------------------------------------------

G|---------------------------------------------------
D|-7-7-7-7-7-7-7-7-9-10-----------/15-15-15-15-15-15\
A|----------------------8-8-8-8-8--------------------
E|---------------------------------------------------

(...)
Pay your surgeon very well
To break the spell of aging
Sicker than the rest
There is no test
But this is what you're craving


Repetição do refrão:

G|---------------------------------------------------
D|-----------------------------5---0-0-0-0-----------
A|-3-3-----5-5-5h7-----3-3---------------------------
E|-----3-3---------5-5-----0-3---3-------------------

G|-7-------7-----------------------------------------
D|---7-7-7---7---------------------------------------
A|---------------------------------------------------
E|---------------------------------------------------

G|---------------------------------------------------
D|---------------------------------------------------
A|-3-3-----5-5-5h7-----3-5-3-0---2-3-5---------------
E|-----3-3---------5-5---------3---------------------

(...)
Dream of Californication
Dream of Californication
Dream of Californication
Dream of Californication
  • 1
  • 2
  • 3
  • 4
  • 5
  • 6
  • 7
  • 8
  • 9
  • 10
  • 11
  • 12

    0 comentários

      mostrar mais comentários
      00:00 / 00:00
      outros vídeos desta música
      repetirqualidadeautomática
      • automática
      Outro vídeos desta música
        Capítulos
        • Início
        • Tocando a música
        • Tocando Introdução
        • Notas da Introdução
        • Ensinando Introdução
        • Tocando Primeira Parte
        • Notas da Primeira Parte
        • Ensinando Primeira Parte
        • Tocando Segunda Parte
        • Notas da Segunda Parte
        • Ensinando Segunda Parte
        • Ensinando Variações da Segunda Parte
        • Tocando Primeiro Refrão
        • Notas do Primeiro Refrão
        • Ensinando Primeiro Refrão
        • Tocando Segundo Refrão
        • Notas do Segundo Refrão
        • Ensinando Segundo Refrão
        • Tocando durante Solo de Guitarra
        • Notas durante Solo de Guitarra
        • Ensinando durante Solo de Guitarra
        • Encerramento
        00:00 / 00:00
        automática
        • automática
        fecharplay/pause subir/descer velocidade
        fechar
        OK
        Feedback