Cifra Club

Aprenda

Californication

Red Hot Chili Peppers

Cifra: Violao-completa (violão e guitarra)
tom: Am
[Intro] Am  F
        Am  F

E|----------------------------------------------------|
B|-----0-1--------------------------------------------|
G|-----------------------------0-2--------------------|
D|---2---2-2-0h2p0---------------0-0------------------|
A|-0---------------3---------3-------3----------------|
E|-------------------------1--------------------------|

E|----------------------------------------------------|
B|-----0-1--------------------------------------------|
G|-----------------------------0-2--------------------|
D|---2---2-2-0h2p0---------------3-3-0----------------|
A|-0---------------3---------3------------------------|
E|-------------------------1--------------------------|

[Primeira Parte]

  Am   
Psychic spies from China
         F
Try to steal your mind's elation
 Am
Little girls from Sweden
          F
Dream of silver screen quotations

   C         G         F      Dm
E|-----0---------------------------1------------------|
B|----------------0--------------3--------------------|
G|---0---0-----------------2--------------------------|
D|--------------0---0----------0----------------------|
A|-3---------------------3---3------------------------|
E|-----------3---------1------------------------------|

    C                  G
And if you want these kind of dreams
      F       Dm
It's Californication

( Am  Fm )
( Am  Fm )

         Am
It's the   edge of the world
            F
And all of western civilization
     Am
The sun may rise in the East
             F
At least it settles in the final location
     C                G
It's understood that Hollywood
       F        Dm
Sells Californication

Am    F7M
Uhhh  Uhhhh
Am    F7M
Uhhh  Uhhhh

 Am
Pay your surgeon very well
     F7M
To break the spell of aging
   Am
Celebrity Skin is this your chin
   F7M
Or is that war your waging?

 Am            F7M
First born unicorn
Am                F7M
  Hard core soft porn

[Refrão]

  C           G    Dm    Am  
Dream of Californication
  C           G    Dm
Dream of Californication
  C           G    Dm    Am  
Dream of Californication
  C           G    Dm
Dream of Californication

[Segunda Parte]

 Am
Marry me girl be my fairy to the world
       F
Be my very own constellation
   Am
A teenage bride with a baby inside
         F
Getting high on information
     C                    G
And buy me a star on the Boulevard
      F        Dm    
It's Californication

( Am  F )
( Am  F )

  Am
Space may be the final frontier
          F
But it's made in a Hollywood basement
 Am 
Cobain can you hear the spheres
         F
Singing songs off station to station
    C               G
And Alderaan's not far away
      F        Dm
It's Californication

Am    F7M
Uhhh  Uhhhh
Am    F7M
Uhhh  Uhhhh

 Am
Pay your surgeon very well
     F7M
To break the spell of aging
   Am
Celebrity Skin is this your chin
   F7M
Or is that war your waging?

 Am            F7M
First born unicorn
Am                F7M
  Hard core soft porn

[Refrão]

  C           G    Dm    Am  
Dream of Californication
  C           G    Dm
Dream of Californication
  C           G    Dm    Am  
Dream of Californication
  C           G    Dm
Dream of Californication

[Base do Solo]

( F#m  D7M )
( F#m  D7M )
( Bm  D  A  E )
( F#m  D7M )
( F#m  D7M )
( Bm  D  A  E ) 
( Bm  D  A  E )
( Bm  D  A  E )

   F#m     D7M
E|-2-------2-2-2--------------------------------------|
B|-2-------2-2-2--------------------------------------|
G|-2-1-----2-2-2--------------------------------------|
D|-4-4-4-2-0-0-0--------------------------------------| (2x)
A|----------------------------------------------------|
E|----------------------------------------------------|

   Bm    D      A      E
E|-----2-----2------0------0--------------------------|
B|-----3-----3------2------0--------------------------|
G|-----4---2--------2------1--------------------------|
D|---4---0--------2--------2--------------------------|
A|-2------------0--------2----------------------------|
E|---------------------0------------------------------|

   F#m     D7M  
E|-2-------2-2-2--------------------------------------|
B|-2-------2-2-2--------------------------------------|
G|-2-1-----2-2-2--------------------------------------|
D|-4-4-4-2-0-0-0--------------------------------------| (2x)
A|----------------------------------------------------|
E|----------------------------------------------------|

  Bm       D       A       E
E|-----2-------2-------0-------0----------------------|
B|-----3-------3-------2-------0----------------------|
G|-----4-----2---------2-------1----------------------| (3x)
D|---4-----0---------2---------2----------------------|
A|-2---------------0---------2------------------------|
E|-------------------------0--------------------------|

[Solo]

E|----9----------9------------------------------------|
B|-10---7b9r7-10---7b9r7-7-7-7-7b5--------------------|
G|----------------------------------------------------|
D|----------------------------------------------------|
A|----------------------------------------------------|
E|----------------------------------------------------|

E|----------------------------------------------------|
B|----------5-7b9r7-7-5-------------------------------|
G|-6-6--4-6-------------6-----------------------------|
D|----------------------------------------------------|
A|----------------------------------------------------|
E|----------------------------------------------------|

E|----9-12-14~----9-12-14b16r14-----------------------|
B|-10----------10-------------------------------------|
G|----------------------------------------------------|
D|----------------------------------------------------|
A|----------------------------------------------------|
E|----------------------------------------------------|

E|-17-16-14-12-14-12----12-9-9-----9------------------|
B|-------------------14------12b14-12b14--------------|
G|----------------------------------------------------|
D|----------------------------------------------------|
A|----------------------------------------------------|
E|----------------------------------------------------|

E|----12----14b16r14-12----12----------12-10-9--------|
B|-------14-------------14----14-12-10----------------|
G|----------------------------------------------------|
D|----------------------------------------------------|
A|----------------------------------------------------|
E|----------------------------------------------------|

( Am  F )
( Am  F )

[Terceira Parte]

     Am
Destruction leads to a very rough road
       F
But it also breeds creation
    Am
And earthquakes are to a girl's guitar
         F
They're just another good vibration
     C                    G
And tidal waves couldn't save the world 
      F        Dm
From Californication

Am    F7M
Uhhh  Uhhhh
Am    F7M
Uhhh  Uhhhh

 Am 
Pay your surgeon very well
     F7M
To break the spell of aging
 Am
Sicker than the rest
 
There is no test
      F7M
But this is what you're craving

 Am            F7M
First born unicorn
Am                F7M
  Hard core soft porn

[Refrão]

  C           G    Dm    Am  
Dream of Californication
  C           G    Dm
Dream of Californication
  C           G    Dm    Am  
Dream of Californication
  C           G    Dm
Dream of Californication

  C           G    Dm    Am  
Dream of Californication
  C           G    Dm
Dream of Californication
  C           G    Dm    Am  
Dream of Californication
  C           G    Dm
Dream of Californication
Composição de Anthony Kiedis / Chad Smith / Flea / John Frusciante
Colaboração e revisão:
  • Getúlio Vasconcelos
11.566 exibições
  • Simplificar cifra
    • ½ Tom
    • Am
    • Bbm
    • Bm
    • Cm
    • C#m
    • Dm
    • Ebm
    • Em
    • Fm
    • F#m
    • Gm
    • G#m
  • Adicionar à lista

    0 comentários

    Ver todos os comentários
    00:00 / 00:00
    Outros vídeos desta música
    Repetir Qualidade Automático
    Outros vídeos desta música
    00:00 / 00:00
    Automático
    Capítulos
    • Início
    • Tocando solo da introdução
    • Ensinando o dedilhado do solo da introdução
    • Acordes da primeira parte
    • Tocando primeira parte
    • Acordes da segunda parte
    • Tocando a segunda parte
    • Ensinando o dedilhado da segunda parte
    • Acordes da terceira parte
    • Tocando a terceira parte
    • Ensinando o rítmo da terceira parte
    • Acordes do refrão
    • Tocando o refrão
    • Ensinando o rítmo do refrão
    • Acordes da base do solo
    • Tocando a base do solo
    • Tocando o rítmo da base do solo devagar
    • Ensinando o rítmo da base do solo (parte 1)
    • Ensinando o rítmo da base do solo (parte 2)
    • Tocando o solo
    • Ensinando o solo (parte 1)
    • Ensinando o solo (parte 2)
    • Ensinando o solo (parte 3)
    • Ensinando o solo (parte 4)
    • Ensinando o solo (parte 5)
    • Encerramento

    Cifra Club Pro

    Aproveite o Cifra Club com benefícios exclusivos e sem anúncios
    Cifra Club Pro
    Aproveite o Cifra Club com benefícios exclusivos e sem anúncios
    OK