Cifra Club

Charlie

Red Hot Chili Peppers

Cifra: Principal
exibições 77.387
Tom: F
E|--------------------------|
B|--------------------------|
G|-----------3-----------3--|
D|-----3---2-------3---2----|
A|---2---1-------2---1------|
E|-1-----------1------------|

E|-3-3-x-3-x-3---3-3-x-3-x-3---|
B|-3-3—x-3-x-3---3-3-x-3-x-3---|
G|-3-3—x-3-x-3---3-3-x-3-x-3---|repete
D|-----------------------------|
A|-----------------------------|
E|-----------------------------|

On the boards, stitchin' time Get yours, got mine
In a minute I’ll be there Sit tight get square
You could do it at the hippodrome Slide back trombone
Anybody got a TV at home That’s right unknown
E|-3-3-x-3-x-3---3-3-x-3-x-3---|
B|-3-3—x-3-x-3---3-3-x-3-x-3---|
G|-3-3—x-3-x-3---3-3-x-3-x-3---|repete
D|-----------------------------|
A|-----------------------------|
E|-----------------------------|

When I pick up on that smell
Pick it up and run like hell
Little woman save me some
Better get up on your run
E|-15-15-x-15-x-15---15-15-x-15-x-15---|
B|-15-15-x-15-x-15---15-15-x-15-x-15---|
G|-15-15-x-15-x-15---15-15-x-15-x-15---|repete
D|-------------------------------------|
A|-------------------------------------|
E|-------------------------------------|

E|-15-15-x-15-x-15---15-15-x-15-x-15---|
B|-15-15-x-15-x-15---15-15-x-15-x-15---|
G|-15-15-x-15-x-15---15-15-x-15-x-15---|repete
D|-------------------------------------|
A|-------------------------------------|
E|-------------------------------------|

Chorus:
So much more than   Charlie's wakin' me
To my core and      Charlie's shakin' me
Tell my story       Charlie's makin' me
E|-----------------|-------------------|
B|-----------------|-------------------|
G|-x-x-8-8-x-x-7-7-|-x-x-10-10-x-x-8-8-|
D|-x-x-8-8-x-x-8-8-|-x-x-10-10-x-x-8-8-|
A|-----------------|-------------------|
E|-----------------|-------------------|
Charlie's makin' me smile
E|-----------------|---------------------------8--8—-8--8--8--8—-8-|
B|-----------------|-x-10-10-x-x-10-10-10-x-x-10-10-10-10-10-10-10-|
G|-x-x-8-8-x-x-7-7-|-x-10-10-x-x-10-10-10-x-x-10-10-10-10-10-10-10-|
D|-x-x-8-8-x-x-8-8-|-x-10-10-x-x-10-10-10-x-x----------------------|
A|-----------------|-----------------------------------------------|
E|-----------------|-----------------------------------------------|

Everybody do the twist Get the message, on flea's fist
Move around like a scientist Lay down, get kicked
Big picture and it never lies Big daddy scooted by
Every wedding in disguise Some set, sometimes

When I pick up on that smell
Pick it up and run like hell
Little woman, sing me a song
Gotta get up on your run

Solo:
E|---------------------------------b13------------------------------------|
B|---------------11-13-b13----13p11-----b13~~p11-13-13-13p11--b11~~r~~b~~-|
G|-10h12\------12---------------------------------------------------------|
D|------------------------------------------------------------------------|
A|------------------------------------------------------------------------|
E|------------------------------------------------------------------------|

Chorus

E|-------------------|-------------------|
B|-------------------|-------------------|
G|----------------|----------------------
D|--b10r--8-10-8-7—----b10r---8-10-8-7------8--...the same again --b10r---8-10-8-7
A|------------------10|-----------------8p10----------------------------------------10-8
E|-------------------|-------------------|

My heart, your skin  This love, I'm in
We don't arrive, without a surprise
You're right, I'm wrong  We're freed, belong
Intimate sight has come in to light


BACK TO VERSE

E|-3-3-x-3-x-3---3-3-x-3-x-3---|
B|-3-3—x-3-x-3---3-3-x-3-x-3---|
G|-3-3—x-3-x-3---3-3-x-3-x-3---|repete
D|-----------------------------|
A|-----------------------------|
E|-----------------------------|

etc...

When i pick up on that smell
Pick it up and run like hell
Little women send me some
Better get up on your run
All i ever wanted too
Was pick it up and run with you
Slip it into a summer spell
Double up and run like hell

Solo:
E|---------------------------------------------------13-15--------------|
B|---------------------------b13~~p11-----------b13---------b13~~p11----|
G|-10h12p10-12p10-12p10-etc-----------12--12-10---------------------12--|
D|----------------------------------------------------------------------|
A|----------------------------------------------------------------------|
E|----------------------------------------------------------------------|

Chorus

My heart, your skin  This love, I'm in
We don't arrive, without a surprise
You're right, I'm wrong  We're freed, belong
Intimate sight has come in to light

My heart, your skin  This love, I'm in
We don't arrive, without a surprise
You're right, I'm wrong  We're freed, belong
Chorus

E|-------------------|-------------------|
B|-------------------|-------------------|
G|----------------|----------------------
D|--b10r--8-10-8-7—----b10r---8-10-8-7------8--...the same again --b10r---8-10-8-7
A|------------------10|-----------------8p10----------------------------------------10-8
E|-------------------|-------------------|

Intimate sight has come in to light
E|-10-----------------|-10-----------------|
B|---13-11-13-11-10---|---13-11-13-11-10---|
G|-----------------12-|-----------------12-|
D|--------------------|--------------------|
A|--------------------|--------------------|
E|--------------------|--------------------|

Solo:
E|--------------------------------------------------------------------------------|
B|-----------------------------b13-11---------b13-11------------11h13-11----------|
G|-b10—-10p7-b10—-b10-10p7-b10-------12-10-12-------12-10-12-12----------12-10-12-|
D|--------------------------------------------------------------------------------|
A|--------------------------------------------------------------------------------|
E|--------------------------------------------------------------------------------|

E|------------------------------------------------------|
B|------------------------------------------------------|
G|-12-10------------------------------------------------|
D|-------12-b10--8-10-8-10p8-----b8---------------------|
A|---------------------------10----10p8h10-10p8---8h10--|
E|---------------------------------------------10-------|

Chorus last part

E|-------------------|-------------------|
B|-------------------|-------------------|
G|----------------|----------------------
D|--b10r--8-10-8-7—----b10r---8-10-8-7------8--...the same again --b10r---8-10-8-7
A|------------------10|-----------------8p10----------------------------------------10-8-10
E|-------------------|-------------------|
Acordes para:

    0 comentários

      mostrar mais comentários

      Conseguiu tocar?

      23tocaram0ainda não

      Grave um vídeo tocando Charlie e mande pra gente!

      00:00 / 00:00
      outros vídeos desta música
      repetirqualidadeautomática
      Outro vídeos desta música
        00:00 / 00:00
        automática
        OK