Cifra Club

Dance, Dance, Dance

Red Hot Chili Peppers

Tab de baixo: Principal
exibições 788
G-----------------------|
D-----------------------|
A-5-5-5555--7-7-7777----|
E----7----7----7----7---| 14x

G-------------------7|
D------------------7-|
A-55---55---55---5---|
E---7-7--7-7--7-7----|

G-----------------7-----7|
D-----7-----5------------|
A-------------5-5---5-5--|
E-5-5---3-3--------------| 2x

G-----------------------|
D-----------------------|
A-5-5-5555--7-7-7777----|
E----7----7----7----7---| 6x

G-------------------7|
D------------------7-|
A-55---55---55---5---|
E---7-7--7-7--7-7----|


G-----------------7-----7|
D-----7-----5------------|
A-------------5-5---5-5--|
E-5-5---3-3--------------| 4x

G-------------------------|
D------------------------5|
A---55--75675--55--7-5h7--|
E-77--7------77--7--------| 4x

G-----------------------|
D-----------------------|
A-5-5-5555--7-7-7777----|
E----7----7----7----7---| 13x

G-----|
D-----|
A-5~--|
E-----|
Colaboração e revisão:
  • Andrey Augusto

0 comentários

    mostrar mais comentários

    Conseguiu tocar?

    0tocaram0ainda não

    Grave um vídeo tocando Dance, Dance, Dance e mande pra gente!

    00:00 / 00:00
    outros vídeos desta música
    repetirqualidadeautomática
    Outro vídeos desta música
      00:00 / 00:00
      automática
      OK