Cifra Club

Dani California

Red Hot Chili Peppers

Tab de baixo: Principal
exibições 108.203
Introdução

Parte 1

G|-----------------------7--------------------|
D|------7-------5--3-------x-5h7-5------------|
A|-------------------5-5-----------7-5--------|
E|-5-5----0-3-3-------------------------------|

Parte 2

G|-----------------------7--------------------|
D|------7-------5--3-------x-7----------------|
A|-------------------5-5-------3-5-7-7--------|
E|-5-5----0-3-3-------------------------------|

Primeira parte

Getting born in the State of Mississippi 

Parte 1

G|-----------------------7--------------------|
D|------7-------5--3-------x-5h7-5------------|
A|-------------------5-5-----------7-5--------|
E|-5-5----0-3-3-------------------------------|

Parte 2

G|-----------------------7--------------------|
D|------7-------5--3-------------5------------|
A|-------------------5-5---x-5h7---7-5--------|
E|-5-5----0-3-3------------------------8------|

Parte 3

She never knew that there was 
                                 .     .
G|-----------------------7-------5------------|
D|------7-------5--3-------x-5h7-------5------|
A|-------------------5-5-----------5h7--------|
E|-5-5----0-3-3-------------------------------|

Parte 4

G|-----------------------7--------------------|
D|------7-------5--3-------x-5h7-5------------|
A|-------------------5-5-----------7-5--------|
E|-5-5----0-3-3-------------------------------|

Black bandana, sweet Louisiana 

Parte 5

G|-----------------------7--------------------|
D|------7-------5--3-------x-5h7-5------------|
A|-------------------5-5-----------7-5--------|
E|-5-5----0-3-3-------------------------------|

Parte 6
G|-----------------------7--------------------|
D|------7-------5--3-------x-5h7-5-----5------|
A|-------------------5-5-----------5h7---7----|
E|-5-5----0-3-3-------------------------------|
Pré refrão

Looking down the barrel of a Hot metal 45 

Parte 1

G|-----------------------7--------------------|
D|------7-------5--3-------x-5h7-5------------|
A|-------------------5-5-----------7-5--------|
E|-5-5----0-3-3-------------------------------|

Parte 2

G|--------------------------------------------|
D|------7-------5--3--------------------------|
A|--------------------------------------------|
E|-5-5----0-3-3-------------------------------|

Parte 3

G|--------------------------------------------|
D|--------------------------------------------|
A|-5-5--5-5-5-5--5-5-5-5-5--5-5-5-5-5---------|
E|--------------------------------------------|

Refrão

Parte 1

G|--------------------------------------------|
D|--------------------------------------------|
A|----------3-3-3-3h5-5-5-5--5-5--------------|
E|-1-1-1--1----------------------3-3----------|

Parte 2(tocar 2x)

G|--------------------------------------------|
D|--------------------------------------------|
A|------------3-3-3-3h5-5-5-5--5-5------------|
E|-1-1-1--1------------------------3-3--------|

Parte 3

G|--------------------------------------------|
D|--------------------------------------------|
A|------------3-3-3-3h5-5-5-5-----------------|
E|-1-1-1--1-----------------------------------|

Parte 4

G|--------------------------------------------|
D|--------------------------------------------|
A|-5-5-5--5-5-5--5-5-5------------------------|
E|--------------------------------------------|

Segunda introdução

Parte 1

G|-----------------------7--------------------|
D|------7-------5--3-------x-5h7-5------------|
A|-------------------5-5-----------7-5--------|
E|-5-5----0-3-3-------------------------------|

Parte 2

G|-----------------------7--------------------|
D|------7-------5--3----------------5---------|
A|-------------------5-5---xx-3-5h7---7-5-----|
E|-5-5----0-3-3-------------------------------|

Segunda parte 

She’s a lover, baby and a fighter,shoulda seen 

Parte 1

G|-----------------------7--------------------|
D|------7-------5--3-------x-5h7-5------------|
A|-------------------5-5-----------7-5--------|
E|-5-5----0-3-3-------------------------------|

Parte 2

G|-----------------------7--------------------|
D|------7-------5--3-------------5------------|
A|-------------------5-5---x-5h7---x-5h7-5----|
E|-5-5----0-3-3-------------------------------|

Pré refrão 2

A little loaded she was,stealin’ another breath 

Parte 1

G|-----------------------7--------------------|
D|------7-------5--3-------x-5h7-5------------|
A|-------------------5-5-----------7-5--------|
E|-5-5----0-3-3-------------------------------|

Parte 2

G|--------------------------------------------|
D|------7-------5--3--------------------------|
A|--------------------------------------------|
E|-5-5----0-3-3-------------------------------|

Parte 3

G|--------------------------------------------|
D|--------------------------------------------|
A|-5-5--5-5-5-5--5-5-5-5-5--5-5-5-5-5---------|
E|--------------------------------------------|

Segundo Refrão

Parte 1

G|--------------------------------------------|
D|--------------------------------------------|
A|------------3-3-3-3h5-5-5-5--5-5------------|
E|-1-1-1--1------------------------3-3--------|

Parte 2(tocar 2x)

G|--------------------------------------------|
D|--------------------------------------------|
A|------------3-3-3-3h5-5-5-5--5-5------------|
E|-1-1-1--1------------------------3-3--------|


Parte 3

G|--------------------------------------------|
D|--------------------------------------------|
A|------------3-3-3-3h5-5-5-5-----------------|
E|-1-1-1--1-----------------------------------|

Parte 4

G|--------------------------------------------|
D|--------------------------------------------|
A|-5-5-5--5-5-5--5-5-5------------------------|
E|--------------------------------------------|

Terceira parte

Who knew the other side of you? 

Parte 1

G|--------------------------------------------|
D|----------9---9-----------------------------|
A|--------9---9---7-9-10-10-7-10-x-9-9-7-9----|
E|-7-7-7-----------------------------------9--|

Parte 2

G|--------------------------------------------|
D|----------9---9-----------------------------|
A|--------9---9---7-9-10-10-7-10-x-9---7-8-9--|
E|-7-7-7-----------------------------9-------9|

Parte 3

G|--------------------------------------------|
D|----------9---9-----------------------------|
A|--------9---9---7-9-10-10-7-10-x-9-9-7-9----|
E|-7-7-7-----------------------------------9--|

Parte 4

G|--------------------------------------------|
D|----------9---9-----------------------------|
A|--------9---9---------------5-7-------------|
E|-7-7-7----------x-9-9-x-5h7-----7/6---------|

Quarta parte

Push the fader, gifted animator 

Parte 1

G|-----------------------7--------------------|
D|------7-------5--3-------x-5h7-5------------|
A|-------------------5-5-----------7-5--------|
E|-5-5----0-3-3-------------------------------|

Parte 2
                               .
G|-----------------------7-----5-7-5----------|
D|------7-------5--3-------5h7-------7-5------|
A|-------------------5-5-----------------7----|
E|-5-5----0-3-3-------------------------------|


Pré refrão 3

A little loaded she was,stealin’ another breath 

Parte 1

G|-----------------------7--------------------|
D|------7-------5--3-------x-5h7-5---5--------|
A|-------------------5-5-----------7---7------|
E|-5-5----0-3-3-------------------------------|

Parte 2

G|--------------------------------------------|
D|------7-------5--3--------------------------|
A|--------------------------------------------|
E|-5-5----0-3-3-------------------------------|

Parte 3

G|--------------------------------------------|
D|--------------------------------------------|
A|-5-5--5-5-5-5--5-5-5-5-5--5-5-5-5-5---------|
E|--------------------------------------------|

Parte 4

G|--------------------------------------------|
D|-14-14-14-14-14-14-14-14-14-----------------|
A|--------------------------------------------|
E|----------------------------0-0-0-0-0-0-0-0-|

Terceiro refrão(tocar 2x)

Parte 1

G|--------------------------------------------|
D|--------------------------------------------|
A|----------3-3-3-3h5-5-5-5--5-5--------------|
E|-1-1-1--1----------------------3-3----------|

Parte 2(tocar 2x)

G|--------------------------------------------|
D|--------------------------------------------|
A|------------3-3-3-3h5-5-5-5--5-5------------|
E|-1-1-1--1------------------------3-3--------|

Parte 3

G|--------------------------------------------|
D|--------------------------------------------|
A|------------3-3-3-3h5-5-5-5-----------------|
E|-1-1-1--1-----------------------------------|

Parte 4

G|--------------------------------------------|
D|--------------------------------------------|
A|-5-5-5--5-5-5--5-5-5------------------------|
E|--------------------------------------------|

Parte 4(segunda vez)

G|--------------------------------------------|
D|-------------------3------------------------|
A|-5-5-5--5-5-5--3h5---5-3--------------------|
E|-------------------------5-3----------------|

Quinta parte solo guitarra

Parte 1

G|--------------------------------------------|
D|--------------------------------------------|
A|--------3-3-3--3h5-5-5-5--5-5---------------|
E|-1-1-1------------------------3-3-----------|

Parte 2

G|--------------------------------------------|
D|--------------------------3-----------------|
A|--------3-3-3--3h5-5-5-5---5----------------|
E|-1-1-1-----------------------0-3-3-3--------|

Parte 3

G|--------------------------------------------|
D|--------------------------------------------|
A|--------3-3-3--3h5-5-5-5--5-5---------------|
E|-1-1-1------------------------3-3-----------|

Parte 4

G|--------------------------------------------|
D|--------------------------------------------|
A|--------3-3-3--3h5-5-5-5--------------------|
E|-1-1-1--------------------------------------|

Parte 5

G|-------------------7-5----7-5---------------|
D|---------------5h7-----7------7--5\3--------|
A|-5-5-5--5-5-5-------------------------------|
E|--------------------------------------------|

Parte 6

G|--------------------------------------------|
D|--------------------------------------------|
A|--------3-3-3--3h5-5-5-5--5-----------------|
E|-1-1-1-----------------------0-3-3-3--------|

Parte 7

G|--------------------------------------------|
D|--------------------------------------------|
A|--------3-3-3--3h5-5-5-5--5-5---------------|
E|-1-1-1------------------------3-3-3---------|

Parte 8

G|--------------------------------------------|
D|--------------------------3--5h7-5-3--------|
A|--------3-3-3--3h5-5-5-5-------------5------|
E|-1-1-1--------------------------------------|

Parte 9

G|--------------------------------------------|
D|--------------------------------------------|
A|----------------------------0-1-2-----------|
E|-1-1-1-1-1-1-1-1--1-1-1-1-1-----------------|

Parte 10

G|-------------------2-2-3-3-4-5-5------------|
D|-----2---3---4---5--------------------------|
A|-3-3---3---3---3-------------------5--------|
E|--------------------------------------------|
Composição: Anthony Kiedis / Chad Smith / Flea / John FruscianteColaboração e revisão:
  • Reginaldo Costa
  • Victor Guimaraes.
  • natália

0 comentários

    mostrar mais comentários

    Conseguiu tocar?

    33tocaram1ainda não

    Grave um vídeo tocando Dani California e mande pra gente!

    00:00 / 00:00
    outros vídeos desta música
    repetirqualidadeautomática
    Outro vídeos desta música
      00:00 / 00:00
      automática
      Capítulos
      • Início
      • Tocando a Música
      • Tocando Introdução
      • Ensinando Introdução
      • Tocando Primeira Parte
      • Ensinando Primeira Parte
      • Tocando Pré-Refrão
      • Ensinando Pré-Refrão
      • Tocando o Refrão
      • Ensinando o Refrão
      • Tocando Segunda Introdução
      • Ensinando Segunda Introdução
      • Tocando Segunda Parte
      • Ensinando Segunda Parte
      • Tocando Terceira Parte
      • Ensinando Terceira Parte
      • Tocando Quarta Parte
      • Ensinando Quarta Parte
      • Tocando Variação Pré-Refrão
      • Ensinando Variação Pré-Refrão
      • Tocando Variação Refrão
      • Ensinando Variação Refrão
      • Tocando Base Solo de Guitarra
      • Ensinando Base Solo de Guitarra
      • Encerramento
      OK