Cifra Club

Dark Necessities

Red Hot Chili Peppers

Cifra: Completa (violão e guitarra)
tom: Ab
Intro:

Baixo adaptado:
     Ab                     Fm               Cm              Bb
E|-------------------------------------------------------------------------------|
B|-------------------------------------------------------------------------------|
G|-------------------------------------------------------------------------------|
D|-------------------------------------------------------------------------------|
A|-----------------------------------------3-3-3-3-3-3-3-3-1-1-1-1-1-1-1-1-1-1---|
E|--4-4-4-4-4-4-4-4-4-1-1-1-1-1-1-1-1-1-1-1--------------------------------------|

Baixo fica até começar o vocal.

Guitar 2 (Entra em cima do Cm do 1º compasso do baixo) :

E|-----------------|
B|---------9-11----|
G|---10-12---------|
D|-----------------|
A|-----------------|
E|-----------------|

Repete até o começo do vocal.

Guitar 1 (Entra no 2º compasso do baixo) :


E|--------------------------------------------------------------------|
B|---------------------------------------------------------11---------|
G|---10-8-10----8-10-8-10-8-10----8-10-8-12-8-10----8-10-8----10-8~---|
D|--------------------------------------------------------------------|
A|--------------------------------------------------------------------|
E|--------------------------------------------------------------------|  3x


VOCAL:

Guitar

      Cm
E|-----3----3-3-3-3-----|
B|-----4----4-4-4-4-----|  
G|-----5----5-5-5-5-----|
D|-----5----5-5-5-5-----|
A|---3------------------|
E|----------------------|
     ↑ ↑    ↓ ↑ ↓ ↑

O ritmo segue em todos os acordes do vocal.

Cm 1x
Coming out to the light of day
Ab 1x
We got many moons than a deeper place
Cm 1x
So I keep an eye on the shadow's smile
Ab 1x
To see what it has to say

Fm 1x
You and I both know
Ab 1x                  Cm 2x
Everything must go away
Ah, what do you say?

Cm 1x
Spinning off, head is on my heart
Ab 1x
It's like a bit of light and a touch of dark
Cm 1x
You got sneak attacked from the zodiac
Ab 1x
But I see your eyes spark

Fm 1x
Keep the breeze and go
Ab 1x                   Cm 2x
Blow by blow and go away
Oh what do you say?


E o ritmo é mais livre depende da pegada de cada um na musica em si,
mas o que se ouve mais no vocal é o baixo a seguir:


Baixo Adaptado:
Riff 1 (Baixo)

E|---------------------------------|
B|---------------------------------|
G|---------------------------------|
D|---------------------------------|
A|----3---1-3-1-------3---1-3-1----|
E|-1-------------3-4------------3--|  2x

A nota G no final já liga a nota F do começo para repetir
Na próxima parte do vocal (Fm,G#,Cm) segue o baixo:

Riff 2(Baixo)

    Fm     Ab        Cm
E|-------------------------------------------------|
B|-------------------------------------------------|
G|-------------------------------------------------|
D|----------------------------------------1-0------|
A|----------------------3---1-3-1------3------3-1--|
E|-1~---1-4~---4-----1------------3-1--------------|

E assim continua a execução do vocal.



REFRÃO:

"Baixo igual a intro."

Ab 1x
Yeah, you don't know my mind
Fm 1x
You don't know my kind
Cm 1x               Bb 1x
Dark necessities are part of my design
Ab 1x               Fm 1x
Tell the world that I'm falling from the sky
Cm 1x               Bb 1x
Dark necessities are part of my design

(Cm Ab) 2x
[Riff 1(Baixo)] 2x

VOCAL:

(Cm G#) 2x // [Riff 1(Baixo)] 2x
Stumble down to the parking lot
You got no time for the afterthought
They're like ice cream for an astronaut
Well that's me looking for weed

(Fm G# Cm) [Riff 2(Baixo)] 2x
Turn the corner and…
Find the world and show command
Playing the hand

REFRÃO:

(Ab 1x Fm 1x Cm 1x Bb 1x) 2x
Yeah, you don't know my mind
You don't know my kind
Dark necessities are part of my design
Tell the world that I'm falling from the sky
Dark necessities are part of my design

PONTE:

Base da ponte (D# 1x C# 1x Cm 1x G# 1x) 3x

E|------------------------------------8~--6-6-8-6-11~---11~--13-16--|
B|-6/8~-8-9-10-9-8---------8-9-10-9-8--------------------9~---------|
G|-----------------8/10~---------------------------------8~---------|
D|------------------------------------------------------------------|
A|------------------------------------------------------------------|
E|------------------------------------------------------------------|  3x

Do you want this love of mine?
The darkness helps to sort the shine
Do you want it, do you want it now?
Do you want it overtime?
The darkness helps to sort the shine
Do you want it, do you want it now?

VOCAL

(Cm G#) 2x // [Riff 1(Baixo)] 2x
Pick you up like a paperback
With the track record of a maniac
So I'm moving in and we unpack
It's the same as yesterday

(Fm G# Cm) [Riff 2(Baixo)] 2x
Honey where we roll
Everything must go away
Ah, what do you say?

REFRÃO:

(Ab 1x Fm 1x Cm 1x Bb 1x) 2x
Yeah, you don't know my mind
You don't know my kind
Dark necessities are part of my design
Tell the world that I'm falling from the sky
Dark necessities are part of my design


SOLO:

Base: Mesma do refrão (G# 1x Fm 1x Cm 1x Bb 1x)


E|-11-11-10-10-8-8------------------------------------------------------------------|
B|-----------------11-11------------------------------------------------------------|
G|-----------------------10h12-12-12-8h10-10-10-------------------------------------|
D|----------------------------------------------8h10-10-10--------------------------|
A|---------------------------------------------------------8h10-10-10-6h8-8-8-------|
E|----------------------------------------------------------------------------6h8-8-|

(4x)

E|------------------------------------------------------------------|
B|------------------------------------------------------------------|
G|------------------------------------------------------------------|
D|------------------------------------------------------------------|
A|-----------10-8-10-8h10-10----------8h10-8h10-8h10----------------|
E|-6h8-8-8-8-----------------\8-8-8-8-----------------8b10r8-8-8-8--| 

E|---------------------------------|
B|---------------------------------|
G|---------------------------------|
D|---------------------------------|
A|-8h10-8h10-8h10-----8-6----8-----|
E|----------------8-8-----10---8*--| 
                                Essa nota já é a repetição dessa sequencia que  
                                Repete tudo de novo quando chegar nessa nota na 
                                2º vez ao mesmo tempo entra essa próxima tab:

E|------------------------------------------------------------------|
B|------------------------------------------------------------------|
G|-------------10/12-12-12--------------10/12-12-12--5b7r5--5-5-5---|
D|--10-10-10-10-------------10-10-10-10-----------------------------|
A|------------------------------------------------------------------|
E|------------------------------------------------------------------|

E|-----------------------------------------|
B|-----------------------------------------|
G|-10/12-12-12--------10-8-7-8-------------|
D|-------------10-10-----------10~~--------|
A|-----------------------------------------|
E|-----------------------------------------| 
Composição de Anthony Kiedis / Chad Smith / Josh Klinghoffer / Michael Flea Balzary
Colaboração e revisão:
  • Gabriel Moretti
13.870 exibições
    • ½ Tom
    • A
    • Bb
    • B
    • C
    • Db
    • D
    • Eb
    • E
    • F
    • F#
    • G
    • Ab
  • Adicionar à lista

    0 comentários

    Ver todos os comentários
    00:00 / 00:00
    Outros vídeos desta música
    Repetir Qualidade Automático
    Outros vídeos desta música
    00:00 / 00:00
    Automático
    Capítulos
    • Tocando a música
    • Dicas Iniciais / Equipamentos
    • Tocando a Introdução
    • Introdução - Guitarra Base
    • Introdução - Guitarra Riff
    • Tocando a Primeira Parte
    • Primeira Parte
    • Primeira Parte (variação)
    • Acordes do Refrão
    • Tocando o Primeiro Refrão
    • Refrão - Parte 1 de 4
    • Refrão - Parte 2 de 4
    • Refrão - Parte 3 de 4
    • Refrão - Parte 4 de 4
    • Tocando Segunda Parte - Ponte
    • Ponte - Parte 1 de 2
    • Ponte - Parte 2 de 2
    • Tocando Terceira Parte - Solo
    • Solo Final - Parte 1 de 3
    • Solo Final - Parte 2 de 3
    • Solo Final - Parte 3 de 3
    • Encerramento
    • Ficha Técnica

    Cifra Club Pro

    Aproveite o Cifra Club com benefícios exclusivos e sem anúncios
    Cifra Club Pro
    Aproveite o Cifra Club com benefícios exclusivos e sem anúncios
    OK