Cifra Club

Dark Necessities

Red Hot Chili Peppers

Cifra: Contrabaixo (violão e guitarra)
tom: Bb
INTRO
G|-------|------|-------|------|
D|-------|------|--10*--|--8*--| 4x
A|--11*--|--8*--|-------|------|
E|-------|------|-------|------|
* = tocar repetidamente

G|----5--3-5-5---------5--3-5-5-|-------5--3-5-5-----------5--3-5-5-|
D|------------------------------|-----------------------------------|
A|-3----------------------------|-1--3------------------------------|
E|---------------3--4-----------|---------------------3--4----------|

VERSO (2x): use notas fantasma!
G|-------5--3-5-5----------5--3-5-5-|-------5--3-5-5------------5--3-5-5-|
D|----------------------------------|------------------------------------|
A|-1--3-----------------------------|-1--3-------------------------------|
E|------------------3--4------------|---------------------3--4-----------|

  
G|--------------------------------|----5--3-5-5-----------5---8-7-5-|
D|----3--1--3-3--------6----6-----|---------------------------------|
A|----------------------------6-5-|-3---------------1--3------------|
E|-1--------------1-/4------------|---------------------------------|

REFRÃO (2x)
G|----------13----------13---13----12-|-------10-------10----12-------|
D|------------------------------------|----------------------------13-|
A|-11-11-11----11-11-11----11---10----|-8-8-8----8-8-8----10----------|
E|------------------------------------|-------------------------11----|

G|---------------------8----12-|-------------------8----12-|
D|-------10------10------------|-------8------8------------|
A|-------------------6---10----|-----------------6---10----|
E|-8-8-8----8-8-8--------------|-6-6-6---6-6-6-------------|

PONTE
G|-8-7-5-------------|-6-5-3-------------|-10-8-7---------------|-13-12-10-------------------|
D|-------8-6-5-------|-------6-5-3-------|--------10-8-7--------|----------13-11-10----------|
A|-------------8-6-6-|-------------6-4-4-|---------------10-8-8-|-------------------13-11-11-|
E|-------------------|-------------------|----------------------|----------------------------|

G|-8-7-5-------------|-6-5-3-------------|-10-8-7---------------------|
D|-------8-6-5-------|-------6-5-3-------|--------10-8-7--------------|
A|-------------8-6-6-|-------------6-4-4-|---------------10-8-8----11-|
E|-------------------|-------------------|----------------------------|

OUTRO
G|----|---------|--------|-------|---------|----------|---------|-------|------------|
D|----|---------|--------|-------|---------|----10----|-10-10---|-------|------------|  
A|-11-|-11-11-8-|-8------|---6---|------11-|-11-----8-|---------|-6-5-8-|--8--8-8-10-|
E|----|---------|---1/-8-|-8---6-|-6-6/----|----------|-------8-|-------|------------|

G|----------13----------13---13----12-|-------10-------10----12-------|
D|------------------------------------|----------------------------13-|
A|-11-11-11----11-11-11----11---10----|-8-8-8----8-8-8----10----------|
E|------------------------------------|-------------------------11----|

G|---------------------10----8-|-------------------8----12-|
D|-------10-------10-----------|-------8-------8-----------|
A|--------------------8----6---|-----------------6---10----|
E|-8-8-8----8-8-8--------------|-6-6-6---6-6-6-------------|

G|-5---5-5---13---13-13---8---8-8---7---7-7---5-|
D|----------------------------------------------|
A|----------------------------------------------|
E|-4---4-4---13---13-13---8---8-8---6---6-6---4-|
Composição de Anthony Kiedis / Chad Smith / Josh Klinghoffer / Michael Flea Balzary
Colaboração e revisão:
  • Giovanni Tani
6.680 exibições
    • ½ Tom
    • A
    • Bb
    • B
    • C
    • Db
    • D
    • Eb
    • E
    • F
    • F#
    • G
    • Ab
  • Adicionar à lista

    0 comentários

    Ver todos os comentários
    00:00 / 00:00
    Outros vídeos desta música
    Repetir Qualidade Automático
    Outros vídeos desta música
    00:00 / 00:00
    Automático
    Capítulos
    • Tocando a música
    • Dicas Iniciais / Equipamentos
    • Tocando a Introdução
    • Introdução - Guitarra Base
    • Introdução - Guitarra Riff
    • Tocando a Primeira Parte
    • Primeira Parte
    • Primeira Parte (variação)
    • Acordes do Refrão
    • Tocando o Primeiro Refrão
    • Refrão - Parte 1 de 4
    • Refrão - Parte 2 de 4
    • Refrão - Parte 3 de 4
    • Refrão - Parte 4 de 4
    • Tocando Segunda Parte - Ponte
    • Ponte - Parte 1 de 2
    • Ponte - Parte 2 de 2
    • Tocando Terceira Parte - Solo
    • Solo Final - Parte 1 de 3
    • Solo Final - Parte 2 de 3
    • Solo Final - Parte 3 de 3
    • Encerramento
    • Ficha Técnica

    Cifra Club Pro

    Aproveite o Cifra Club com benefícios exclusivos e sem anúncios
    Cifra Club Pro
    Aproveite o Cifra Club com benefícios exclusivos e sem anúncios
    OK