Enviar cifraEntrar

Dark Necessities

Red Hot Chili Peppers

Tab de baixo: Principal
exibições 14.074
Introdução: (4x)

Parte 01 de 02

G|----------------------------------------------|
D|----------------------------------------------|
A|-11-11-11-11--11-11-11-11--11-11-11-11--------|
E|----------------------------------------------|

G|----------------------------------------------|
D|----------------------------------------------|
A|-11-11-11-11--8-8-8-8--8-8-8-8--8-8-8-8-------|
E|----------------------------------------------|

Parte 02

G|----------------------------------------------|
D|----------10-10-10-10--10-10-10-10------------|
A|-8-8-8-8--------------------------------------|
E|----------------------------------------------|

G|----------------------------------------------|
D|-10-10-10-10--10-10-10-10--8-8-8-8--8-8-8-8---|
A|----------------------------------------------|
E|----------------------------------------------|

G|----------------------------------------------|
D|-8-8-8-8--8-8-8-8-----------------------------|
A|----------------------------------------------|
E|----------------------------------------------|

Parte 01

  
G|------5-x----3-5-x--------5--x----3-5-x-------|
D|----------------------------------------------|
A|-3-3------3-----------------------------1-----|
E|-------------------3-4-4-------4--------------|

G|------5-x----3-5-x--------5--x----3-5-x-------|
D|----------------------------------------------|
A|-3-3------3-----------------------------------|
E|-------------------3-4-4-------4--------4-----|

Primeira parte

Coming on to the light of day, we got...

Parte 01 de 04

   
G|------5-x----3-5-x--------5--x----3-5-x-------|
D|----------------------------------------------|
A|-3-3------3-----------------------------1-----|
E|-------------------3-4-4-------4--------------|

G|------5-x----3-5-x--------5--x----3-5-x-------|
D|----------------------------------------------|
A|-3-3------3-----------------------------------|
E|-------------------3-4-4-------4--------3-----|

Parte 02 de 04
   
G|----------------------------------------------|
D|-----3-1---3-3-x-------6----6-----------------|
A|---------3---------------------6-5-4----------|
E|-1-1-----------1/4-4-----4--------------------|
    
G|------5-x----3-5-x--------5--x-8-7-5----------|
D|----------------------------------------------|
A|-3-3------3--------1-3-3----------------------|
E|----------------------------------------------|

Parte 03 de 04

  
G|------5-x----3-5-x--------5--x----3-5-x-------|
D|----------------------------------------------|
A|-3-3------3-----------------------------1-----|
E|-------------------3-4-4-------4--------------|

  
G|------5-x----3-5-x--------5--x----3-5-x-------|
D|----------------------------------------------|
A|-3-3------3-----------------------------------|
E|-------------------3-4-4-------4--------3-----|

Parte 04 de 04

G|----------------------------------------------|
D|-----3-1---3-3-x-------6----6-----------------|
A|---------3---------------------6-5-4----------|
E|-1-1-----------1/4-4-----4--------------------|

              
G|------5-x----3-5-x--------5-x------8---7----5-|
D|----------------------------------------------|
A|-3-3------3--------1-3-3--------6----5---3----|
E|----------------------------------------------|

Refrão 01 ( tocar 2x )

You don't know my mind...

Parte 01 de 04

G|------------------------13------13----12------|
D|----------------------------------------------|
A|-11-11-11-11--11-11-11-----0-11----10---------|
E|----------------------------------------------|

G|--------10--------10-------12-----------------|
D|---------------------------------13-------10--|
A|-8-8-8-----8-8-8-----0-10---------------------|
E|-----------------------------11-----8-8-8-----|

Parte 02 de 04

G|----------------------------------------------|
D|-------10------13----12--------8-------8-8-8--|
A|----------------------------------------------|
E|-8-8-8----0-11----10----6-6-6----6-6-6--------|

G|----------------------------------------------|
D|----------------------------------------------|
A|-8-8-8-10-------------------------------------|
E|----------------------------------------------|

Parte 03 de 04

G|------------------------13------13----12------|
D|----------------------------------------------|
A|-11-11-11-11--11-11-11-----0-11----10---------|
E|----------------------------------------------|

G|--------10--------10--------------------------|
D|---------------------------14----12-------10--|
A|-8-8-8-----8-8-8------------------------------|
E|---------------------0-11----10-----8-8-8-----|

Parte 04 de 04

G|----------------------12----------------------|
D|-------10------13--------------8-------8-8-8--|
A|-------------------10-------------------------|
E|-8-8-8----0-11----------6-6-6----6-6-6--------|

G|----------------------------------------------|
D|----------------------------------------------|
A|-8-8-8-10-------------------------------------|
E|----------------------------------------------|

Introdução 3

Parte 01

G|------5-x----3-5-x--------5--x----3-5-x-------|
D|----------------------------------------------|
A|-3-3------3-----------------------------1-----|
E|-------------------3-4-4-------4--------------|

   
G|------5-x----3-5-x--------5--x----3-5-x-------|
D|----------------------------------------------|
A|-3-3------3-----------------------------------|
E|-------------------3-4-4-------4--------4-----|

Segunda parte

Stumble down to the parking lot, you got...

Parte 01 de 02

 
G|------5-x----3-5-x--------5--x----3-5-x-------|
D|----------------------------------------------|
A|-3-3------3-----------------------------1-----|
E|-------------------3-4-4-------4--------------|

   
G|------5-x----3-5-x--------5--x----3-5-x-------|
D|----------------------------------------------|
A|-3-3------3-----------------------------------|
E|-------------------3-4-4-------4--------3-----|

Parte 02 de 02

   
G|----------------------------------------------|
D|-----3-1---3-3-x-------6----6-----------------|
A|---------3---------------------6-5-4----------|
E|-1-1-----------1/4-4-----4--------------------|
    
G|------5-x----3-5-x--------5-x----8-7-5--------|
D|----------------------------------------------|
A|-3-3------3--------1-3-3-------3--------------|
E|----------------------------------------------|

Refrão 02 ( tocar 2x )

You don't know my mind...

Parte 01 de 04

G|------------------------13------13----12------|
D|----------------------------------------------|
A|-11-11-11-11--11-11-11-----0-11----10---------|
E|----------------------------------------------|

G|--------10--------10-------12-----------------|
D|---------------------------------13-------10--|
A|-8-8-8-----8-8-8-----0-10---------------------|
E|-----------------------------11-----8-8-8-----|

Parte 02 de 04

G|----------------------------------------------|
D|-------10------13----12--------8-------8-8-8--|
A|----------------------------------------------|
E|-8-8-8----0-11----10----6-6-6----6-6-6--------|

G|----------------------------------------------|
D|----------------------------------------------|
A|-8-8-8-10-------------------------------------|
E|----------------------------------------------|

Parte 03 de 04

G|------------------------13------13----12------|
D|----------------------------------------------|
A|-11-11-11-11--11-11-11-----0-11----10---------|
E|----------------------------------------------|

G|--------10--------10--------------------------|
D|---------------------------14----12-------10--|
A|-8-8-8-----8-8-8------------------------------|
E|---------------------0-11----10-----8-8-8-----|

Parte 04 de 04

G|---------------------12-----------------------|
D|-------10------13--------------8-------8-8-8--|
A|------------------10--------------------------|
E|-8-8-8----0-11----------6-6-6----6-6-6--------|

G|----------------------------------------------|
D|----------------------------------------------|
A|-8-8-8-10-------------------------------------|
E|----------------------------------------------|

Terceira parte

Do you want this love of mine?

Parte 01 de 03

G|-8-7-5----------------------6-5-3-------------|
D|-------8-6-5----------------------6-4-3-------|
A|-------------8-6-6--6--6-6--------------6-----|
E|----------------------------------------------|

G|--------------10-8----------------------------|
D|-------------------11-10-8--------------------|
A|-4-4--4--4-4---------------11-10-8-8--8--8-8--|
E|----------------------------------------------|

Parte 02 de 03

G|-13-12-10-------------------------------------|
D|----------13-11-10----------------------------|
A|-------------------13-11-11--11--11-11--------|
E|----------------------------------------------|

Parte 03 de 03

G|-8-7-5----------------------6-5-3-------------|
D|-------8-6-5----------------------6-4-3-------|
A|-------------8-6-6--6--6-6--------------6-----|
E|----------------------------------------------|

G|--------------10-8----------------------------|
D|-------------------11-10-8--------------------|
A|-4-4--4--4-4---------------11-10-8-8--8--8----|
E|----------------------------------------------|

Quarta parte

Pick you up like a paperback with the...

Parte 01 de 02

 
G|------5-x----3-5-x--------5--x----3-5-x-------|
D|----------------------------------------------|
A|-3-3------3-----------------------------1-----|
E|-------------------3-4-4-------4--------------|

  
G|------5-x----3-5-x--------5--x----3-5-x-------|
D|----------------------------------------------|
A|-3-3------3-----------------------------------|
E|-------------------3-4-4-------4--------3-----|

Parte 02 de 02


G|----------------------------------------------|
D|-----3-1---3-3-x-------6----6-----------------|
A|---------3---------------------6-5-4----------|
E|-1-1-----------1/4-4-----4--------------------|
    
G|------5-x----3-5-x--------5-X----8-7-5--------|
D|----------------------------------------------|
A|-3-3------3--------1-3-3-------3--------------|
E|----------------------------------------------|

Refrão 03 ( tocar 2x )

You don't know my mind...

Parte 01 de 04

G|------------------------13------13----12------|
D|----------------------------------------------|
A|-11-11-11-11--11-11-11-----0-11----10---------|
E|----------------------------------------------|

G|--------10--------10-------12-----------------|
D|---------------------------------13-------10--|
A|-8-8-8-----8-8-8-----0-10---------------------|
E|-----------------------------11-----8-8-8-----|

Parte 02 de 04

G|----------------------------------------------|
D|-------10------13----12--------8-------8------|
A|----------------------------------------------|
E|-8-8-8----0-11----10----6-6-6----6-6-6--------|

G|----------------------------------------------|
D|-8-8-8----------------------------------------|
A|-------8-8-8-10-------------------------------|
E|----------------------------------------------|

Parte 03 de 04

G|------------------------13------13----12------|
D|----------------------------------------------|
A|-11-11-11-11--11-11-11-----0-11----10---------|
E|----------------------------------------------|

G|--------10--------10--------------------------|
D|---------------------------14----12-------10--|
A|-8-8-8-----8-8-8------------------------------|
E|---------------------0-11----10-----8-8-8-----|

Parte 04 de 04

G|---------------------12-----------------------|
D|-------10------13--------------8-------8-8-8--|
A|------------------12--------------------------|
E|-8-8-8----0-11----------6-6-6----6-6-6--------|

G|----------------------------------------------|
D|----------------------------------------------|
A|-8-8-8-10-------------------------------------|
E|----------------------------------------------|

Solo de Guitarra ( Parte Final )

Parte 01 de 06

G|----------------------------------------------|
D|----------------------------------------------|
A|-11--11-11\-8-8--8h10p8-----------------------|
E|------------------------8--8-11-8-6--6-6------|

G|----------------------------------------------|
D|----------10-8------10-10--10-10--------------|
A|-8/11--11------11-8--------------------8------|
E|---------------------------------11-10--------|

G|----------------------------------------------|
D|----------------------------------------------|
A|-8-8--8-10------------------------------------|
E|----------------------------------------------|

Parte 02 de 06 

G|------------------------13------13----12------|
D|----------------------------------------------|
A|-11-11-11-11--11-11-11-----0-11----10---------|
E|----------------------------------------------|

G|--------10--------10-------12-----------------|
D|---------------------------------13-------10--|
A|-8-8-8-----8-8-8-----0-10---------------------|
E|-----------------------------11-----8-8-8-----|

Parte 03 de 06

G|----------------------------------------------|
D|-------10------13----12--------8-------8------|
A|----------------------------------------------|
E|-8-8-8----0-11----10----6-6-6----6-6-6--------|

G|---10----12-----------------------------------|
D|----------------------------------------------|
A|-8----10--------------------------------------|
E|----------------------------------------------|

Parte 04 de 06 

G|------------------------13------13----12------|
D|----------------------------------------------|
A|-11-11-11-11--11-11-11-----0-11----10---------|
E|----------------------------------------------|

G|--------10--------10--------------------------|
D|---------------------------13----12-------10--|
A|-8-8-8-----8-8-8------------------------------|
E|---------------------0-11----10-----8-8-8-----|

Parte 05 de 06

G|----------------------------------------------|
D|-------10------13----12--------8-------8------|
A|----------------------------------------------|
E|-8-8-8----0-11----10----6-6-6----6-6-6--------|

G|----------------------------------------------|
D|----------------------------------------------|
A|-6--------------------------------------------|
E|----------------------------------------------|

Parte 06 de 06 ( final )

G|-5--5-5/----13--13-13\--8--8-8\---7--7-7\--5--|
D|----------------------------------------------|
A|----------------------------------------------|
E|-4--4-4/----13--13-13\--8--8-8\---6--6-6\--4--|
  • 1
  • 2
  • 3
  • 4
  • 5
  • 6
  • 7
  • 8
  • 9
  • 10
  • 11
  • 12
    Colaboração e revisão:
    • Reginaldo Costa
    • Gabriel Leite
    • Gustavo Sehnem

    0 comentários

      mostrar mais comentários

      Conseguiu tocar?

      4tocaram0ainda não

      Grave um vídeo tocando Dark Necessities e mande pra gente!

      00:00 / 00:00
      outros vídeos desta música
      repetirqualidadeautomática
      • automática
      Outro vídeos desta música
        Capítulos
        • Tocando a música
        • Apresentação / Equipamentos
        • Dicas e Técnicas
        • Técnica Slap
        • Técnica Thumb e Pop Pluck
        • Exercício - Thumb e Pluck
        • Técnica Dead Notes e Mute
        • Exercícios - Dead Notes
        • Técnica Salto de Oitavas
        • Exercício - Salto de Oitavas
        • Técnica Double Stop
        • Exercício - Double Stop
        • Dicas - Escala Maior e Menor
        • Exercício - Escala Mi Bemol Maior
        • Exercício - Escala Ré Bemol Maior
        • Exercício - Escala Fá Menor
        • Exercício - Escala Lá Bemol Maior
        • Dicas Introdução 1 e 2
        • Treinando Introdução 1 - Parte 1 de 2
        • Treinando Introdução 1 - Parte 2 de 2
        • Treinando Introdução 2
        • Dicas Primeira Parte
        • Treinando Primeira Parte - Parte 1 de 4
        • Treinando Primeira Parte - Parte 2 de 4
        • Treinando Primeira Parte - Parte 3 de 4
        • Treinando Primeira Parte - Parte 4 de 4
        • Dicas Refrão e Introdução 3
        • Treinando Refrão - Parte 1 de 4
        • Treinando Refrão - Parte 2 de 4
        • Treinando Refrão - Parte 3 de 4
        • Treinando Refrão - Parte 4 de 4
        • Dicas Segunda Parte - Terceira Parte
        • Treinando Terceira Parte - Parte 1 de 3
        • Treinando Terceira Parte - Parte 2 de 3
        • Treinando Terceira Parte - Parte 3 de 3
        • Dicas Quarta Parte - Final
        • Treinando Solo de Guitarra - Parte 1 de 6
        • Treinando Solo de Guitarra - Parte 2 de 6
        • Treinando Solo de Guitarra - Parte 3 de 6
        • Treinando Solo de Guitarra - Parte 4 de 6
        • Treinando Solo de Guitarra - Parte 5 de 6
        • Treinando Solo de Guitarra - Parte 6 de 6
        • Encerramento
        00:00 / 00:00
        automática
        • automática
        fecharplay/pause subir/descer velocidade
        fechar
        OK