Cifra Club

Aprenda

Detroit

Red Hot Chili Peppers

Tab de baixo: Principal
[Intro]

G|--12-12-12-12-12-12-12-12-12-12-12-12-12-12-12-12-12-12-12-12-12-12-12-12--|
D|---------------------------------------------------------------------------|
A|---------------------------------------------------------------------------|
E|---------------------------------------------------------------------------|

G|---------------------|--------------------------|
D|---------------------|--------------------------|
A|-----7p5---7p5-7p5-7-|-----7p5---7p5-7p5-7------|
E|-0-7-----7-----------|-0-7-----7-----------3~~--|

G|---------------------|--------------------------|
D|---------------------|--------------------------|
A|-----7p5---7p5-7p5-7-|-----7p5---7p5-7p5-7------|
E|-0-7-----7-----------|-0-7-----7-----------3----|

[Verse]

G|---------------------|--------------------------|
D|---------------------|-------------------7-6-5--|
A|-----7p5---7p5-7p5-7-|-----7p5---7p5-7p5--------|
E|-0-7-----7-----------|-0-7-----7----------------|

G|---------------------|--------------------------|
D|---------------------|--------------------------|
A|-----7p5---7p5-7p5-7-|-----7p5---7p5-7p5-7------|
E|-0-7-----7-----------|-0-7-----7-----------3p5p0|

G|---------------------|--------------------------|
D|---------------------|--------------------------|
A|-----7p5---7p5-7p5-7-|-----7p5---7p5-7p5-7------|
E|-0-7-----7-----------|-0-7-----7-----------3~~--|

G|---------------------|--------------------------|
D|---------------------|--------------------------|
A|-----7p5---7p5-7p5-7-|-----7p5---7p5-7p5-7------|
E|-0-7-----7-----------|-0-7-----7-----------3p5p0|

G|---------------------|--------------------------|
D|---------------------|--------------------------|
A|-----7p5---7p5-7p5-7-|-----7p5---7p5-7p5-7------|
E|-0-7-----7-----------|-0-7-----7----------------|

G|---------------------|--------------------------|
D|---------------------|--------------------------|
A|-----7p5---7p5-7p5-7-|-----7p5---7p5-7p5-7------|
E|-0-7-----7-----------|-0-7-----7----------------|

[Pre-Chorus]
(Funkadelic said it best)

G|------------------------------------------------|
D|------------------------------------------------|
A|-3--3------5-----------7--5h7h5h7h5h7-----------|
E|------3--3---5p3p0---7--------------------------|

G|------------------------------------------------|
D|------------------------------------------------|
A|-3--3------5-----------7--5h7h5h7h5h7-----------|
E|------3--3---5p3p0---7--------------------------|

[Chorus]

G|---------------------------------------------------------------------------|
D|-9-9-9-9-9-9-9-9-9-9-9-9-9-9-9-9-9-9-9-9-9-9-9-9-9-9-9-9-9-9-9-9-9-9-9-9-9-|
A|---------------------------------------------------------------------------|
E|---------------------------------------------------------------------------|

G|---------------------------------------------------------------------------|
D|-8-8-8-8-8-8-8-8-8-8-8-8-8-8-8-8-8-8-8-8-8-8-12-12-12-12-12-12-12-12-12-12-|
A|---------------------------------------------------------------------------|
E|---------------------------------------------------------------------------|

G|---------------------------------------------------------------------------|
D|---------------------------------------------------------------------------|
A|-9-9-9-9-9-9-9-9-9-9-9-9-9-9-9-9-9-9-9-9 10-10-10-10-10-10-10-10-10-10-10--|
E|---------------------------------------------------------------------------|

G|---------------------------------------------------------------------------|
D|-12-12-11-11-9-9-9-9-9-9-9-9-9-9-9-9-9-9-9-9-9-9-9-9-9-9-9-9-9-9-9-9-9-9-9-|
A|---------------------------------------------------------------------------|
E|---------------------------------------------------------------------------|

G|-----------------------------------------------14----14----14----14--------|
D|-12-12-11-11-8-8-8-8-8-8-8-8-8-8-8-8-8-8/12-12----12----12----12-----------|
A|---------------------------------------------------------------------------|
E|---------------------------------------------------------------------------|

G|---------------------------------------------------------------------------|
D|---------------------------------------------------------------------------|
A|-9-9-9-9-9-9-9-9-9-9-9-9-9-9-9-9-10-10-10-10-10-10-10-10-10-10-10-10-10----|
E|---------------------------------------------------------------------------|

[Before Second Verse]

G|---------------------|-12-12-11-11-----------------------------|
D|---------------------|-------------12-12-11-11-9-9-7-7---------|
A|-----7p5---7p5-7p5-7-|---------------------------------9-9-7-7-|
E|-0-7-----7-----------|-----------------------------------------|

[Verse 2]

G|---------------------|--------------------------|
D|---------------------|-------------------7-6-5--|
A|-----7p5---7p5-7p5-7-|-----7p5---7p5-7p5--------|
E|-0-7-----7-----------|-0-7-----7----------------|

G|---------------------|--------------------------|
D|---------------------|--------------------------|
A|-----7p5---7p5-7p5-7-|-----7p5---7p5-7p5-7------|
E|-0-7-----7-----------|-0-7-----7-----------3p5p0|

G|---------------------|--------------------------|
D|---------------------|--------------------------|
A|-----7p5---7p5-7p5-7-|-----7p5---7p5-7p5-7------|
E|-0-7-----7-----------|-0-7-----7-----------3~~--|

G|---------------------|--------------------------|
D|---------------------|--------------------------|
A|-----7p5---7p5-7p5-7-|-----7p5---7p5-7p5-7------|
E|-0-7-----7-----------|-0-7-----7-----------3p5p0|

G|---------------------|--------------------------|
D|---------------------|--------------------------|
A|-----7p5---7p5-7p5-7-|-----7p5---7p5-7p5-7------|
E|-0-7-----7-----------|-0-7-----7----------------|

G|---------------------|--------------------------|
D|---------------------|--------------------------|
A|-----7p5---7p5-7p5-7-|-----7p5---7p5-7p5-7------|
E|-0-7-----7-----------|-0-7-----7----------------|

[Pre-Chorus]
(Funkadelic said it best)

G|------------------------------------------------|
D|------------------------------------------------|
A|-3--3------5-----------7--5h7h5h7h5h7-----------|
E|------3--3---5p3p0---7--------------------------|

G|------------------------------------------------|
D|------------------------------------------------|
A|-3--3------5-----------7--5h7h5h7h5h7-----------|
E|------3--3---5p3p0---7--------------------------|

[Chorus 2]

G|---------------------------------------------------------------------------|
D|-9-9-9-9-9-9-9-9-9-9-9-9-9-9-9-9-9-9-9-9-9-9-9-9-9-9-9-9-9-9-9-9-9-9-9-9-9-|
A|---------------------------------------------------------------------------|
E|---------------------------------------------------------------------------|

G|-----------------------------------------------14----14----14----14--------|
D|-12-12-11-11-8-8-8-8-8-8-8-8-8-8-8-8-8-8/12-12----12----12----12-----------|
A|---------------------------------------------------------------------------|
E|---------------------------------------------------------------------------|

G|---------------------------------------------------------------------------|
D|---------------------------------------------------------------------------|
A|-9-9-9-9-9-9-9-9-9-9-9-9-9-9-9-9-9-9-9-9 10-10-10-10-10-10-10-10-10-10-10--|
E|---------------------------------------------------------------------------|

G|---------------------------------------------------------------------------|
D|-12-12-11-11-9-9-9-9-9-9-9-9-9-9-9-9-9-9-9-9-9-9-9-9-9-9-9-9-9-9-9-9-9-9-9-|
A|---------------------------------------------------------------------------|
E|---------------------------------------------------------------------------|

G|-11-11---------------------------------------------------------------------|
D|-------11-11-12-12-8-8-8-8-8-8-8-8-8-8-8-8-8-8/12-12-12-12/14-14-15-15-----|
A|---------------------------------------------------------------------------|
E|---------------------------------------------------------------------------|


G|-----------------------------------------------------------------11-11-9-9--------------|
D|-----------------------------------------------------12-12-10-10-----------12-12--------|
A|-9-9-9-9-9-9-9-9-9-9-9-9-9-9-9-9-9-9-9-9 10-10-12-12-----------------------------10-10--|
E|----------------------------------------------------------------------------------------|

G|---------------------------------------------------------------------------|
D|-9-9-9-9-9-9-9-9-9-9-9-9-9-9-9-9-9-9-9-9-9-9-9-9-9-9-9-9-9-9-9-9-9-9-9-9-9-|
A|---------------------------------------------------------------------------|
E|---------------------------------------------------------------------------|

G|--------------------------------------------------------14-14--------------|
D|-12-12-11-11-8-8-8-8-8-8-8-8-8-8-8-8-8-8/12-12-14-14-15-------14-14-12-12-8|
A|---------------------------------------------------------------------------|
E|---------------------------------------------------------------------------|

G|---------------------------------------------------------------------------|
D|--------------------------------------------------------------------12-11--|
A|-9-9-9-9-9-9-9-9-9-9-9-9-9-9-9-9-9-9-9-9 10-10-10-10-10-10-10-10-10--------|
E|---------------------------------------------------------------------------|

[Outro]

G|---------------------|--------------------------|
D|---------------------|--------------------------|
A|-----7p5---7p5-7p5-7-|-----7p5---7p5-7p5-7------|
E|-0-7-----7-----------|-0-7-----7----------------|

G|---------------------|--------------------------|
D|---------------------|--------------------------|
A|-----7p5---7p5-7p5-7-|-----7p5---7p5-7p5-7------|
E|-0-7-----7-----------|-0-7-----7----------------|
Composição de Anthony Kiedis / Chad Smith / Flea / Josh Klinghoffer
Colaboração e revisão:
  • Gabriel Leite
207 exibições

0 comentários

Ver todos os comentários

Conseguiu tocar?

0 Tocaram 0 Ainda não

Grave um vídeo tocando Detroit e nos envie!

00:00 / 00:00
Outros vídeos desta música
Repetir Qualidade Automático
Outros vídeos desta música
00:00 / 00:00
Automático

Cifra Club Pro

Aproveite o Cifra Club com benefícios exclusivos e sem anúncios
Cifra Club Pro
Aproveite o Cifra Club com benefícios exclusivos e sem anúncios
OK