Cifra Club

Aprenda

Dreams Of A Samurai

Red Hot Chili Peppers

Tab de baixo: Principal
Bass comes in at 0:49

G|-------------------10p9----------------------------------------|
D|---------------10--------10------------------------------------|
A|---------8h10----------------10--10--10--8h10h12p10p8----------|
E|-10--10--------------------------------------------------------|

This is the basic riff that repeats through the song but depending on how much
you like to slide could also be played like this:

G|---------------------------------------------------------------|
D|---------------10/151410-------------------------------------|
A|---------8h10---------------10--10--10--8h10h12p10p8-----------|
E|-10--10--------------------------------------------------------|



[Post-Chorus]

This happens 1x at 2:32 and 3:37 and 2x in a row at 4:35. Rhythm is relatively
obvious.

G|-----------------------------------------------------------|
D|--------------------------1--1--1--1-----------------------|
A|--1--1--1--1--3--3--3--3--------------------3--3-----------|
E|--------------------------------------3--3-----------------|

[Outro]

Bit trickier to tell but seems like he's gradually sticking more to the lower notes
and using fewer of them, variations on the original theme, make up what you like:

G|----------------------------------------------------------|
D|---------------10-10--------------------------------------|
A|-----------10----------10--10--10--8h10-10p8--------------|
E|-10--10---------------------------------------------------|

G|-----------------10-10------------------------------------|
D|---------------------------10-----------------------------|
A|-------------10----------------10--10--10-----------------|
E|-10--10--10-----------------------------------------------|
Composição de Anthony Kiedis / Chad Smith / Flea / Josh Klinghoffer
Colaboração e revisão:
  • Gabriel Leite
462 exibições

0 comentários

Ver todos os comentários

Conseguiu tocar?

0 Tocaram 0 Ainda não

Grave um vídeo tocando Dreams Of A Samurai e nos envie!

00:00 / 00:00
Outros vídeos desta música
Repetir Qualidade Automático
Outros vídeos desta música
00:00 / 00:00
Automático

Cifra Club Pro

Aproveite o Cifra Club com benefícios exclusivos e sem anúncios
Cifra Club Pro
Aproveite o Cifra Club com benefícios exclusivos e sem anúncios
OK